Notificações Amigos pendentes

      Alice In Chains

      Brush away

      3.676 exibições
      Tom: E
      Intro - and verse riff
      
      |---------------------|
      |---------------------|
      |----------------6----|     <== guitar 1
      |---6---5_6_5-6-------|
      |-4---4--------4------|
      |---------------------|
      
      (lead w/ vocals)
      
      |-----3^4^3-4------------------| <===guitar 2
      |------------------------------|
      |------------------------------|
      |-----5^6^5-6------------------| <== guitar 3
      |------------------------------|
      |------------------------------|
      
      
      Chorus - (as *close* as i can get it)
      Heavy palm mutes....
      
      |------------------------------------|------------------------------------|
      |------------------------------------|------------------------------------|
      |------------------------------------|------------------------------------|
      |------------------------------------|---------------2-2-4-4-4-4-4-4-4-4--|
      |-2-4-4-5-5-2-2-0-0-4-4-4-4-4-4-4-4--|-2-4-4-5-5-2-2-0-0-2-2-2-2-2-2-2-2--|
      |-2-4-4-5-5-2-2-0-0-4-4-4-4-4-4-4-4--|-2-4-4-5-5-2-2----------------------|
      
      
      Ok the solo is like backwards!! im not gonna tab that yet because
      it's *** wierd. This is as much as I can do just now - though the
      solo will arrive soon I'll ask Jerry next time I see him   =)
      
      Letra:
      Composição: Layne Staley & Jerry Cantrell
      
      I could use some
      time to curl away
      my aggression 
      is where you stake
      your claim
      why i question
      this curve on which you grade
      my conception
      a joke? or lastest crase? 
      i try to get away 
      and yet i stick around
      so fall and crawl away
      and brush away loose ground
      my intention
      can i arrive at eight
      lie and dream some 
      surprise you guys i´m late
      all right,correction,forgetting something
      wait
      brush away loose groud
      brush away loose groud
        Composição: Jerry Cantrell / Layne Staley / Mike Inez / Sean KinneyColaboração e revisão:
        • Taino from Hell

        Comentários 0

        140 .
        140 cancelar

        conseguiu tocar?

        covers

        Grave um vídeo tocando Brush away e mande pra gente!

        Ex.: http://www.youtube.com/watch?v=0IvSvIwGdwk
        ver covers de outras músicas »
        0:00 / 0:00

        Capítulos

          2 versões de violão dificuldade exibições contribuição e correção
          2 versões de guitarra dificuldade exibições contribuição e correção
          2 versões de cavaco dificuldade exibições contribuição e correção
          2 versões de teclado dificuldade exibições contribuição e correção
          1 versão de baixo exibições contribuição e correção
          play/pausefechar subir/descer velocidade
          6ª corda E5ª corda A4ª corda D3ª corda G2ª corda B1ª corda E
            acordes
            publicidade
            fechar
            ok