Cifra Club

Aprenda

Chewbacca

Alice In Chains

Cifra: Principal (violão e guitarra)
tom: D
E|--------------------------- 
B|--------------------------- 
G|--3-4346-43-43-------------     intro 
D|--------------54----------- 
A|--------------------------- 
E|--------------------------- 
 
E|--------------------------- 
B|---------------------------- 
G|---------------------------- 
D|--4--3--5------------------- 
A|--4--3--5------------------- 
E|--2--1--3------------------- 
 
E|---------------------------- 
B|---------------------------- 
G|---------------------------- 
D|--4--3--5--4*--4------------      end 
A|--4--3--5--4*--4------------ 
E|--2--1--3--2*--2------------

Composição de alice in chains
2.493 exibições
    • ½ Tom
    • A
    • Bb
    • B
    • C
    • Db
    • D
    • Eb
    • E
    • F
    • F#
    • G
    • Ab
  • Adicionar à lista

    0 comentários

    Ver todos os comentários

    Conseguiu tocar?

    0 Tocaram 0 Ainda não

    Grave um vídeo tocando Chewbacca e nos envie!

    00:00 / 00:00
    outros vídeos desta música
    repetir qualidade Automático
    Outros vídeos desta música
    00:00 / 00:00
    Automático

    Cifra Club Pro

    Aproveite o Cifra Club com benefícios exclusivos e sem anúncios
    Cifra Club Pro
    Aproveite o Cifra Club com benefícios exclusivos e sem anúncios
    OK