Cifra Club

Aprenda

Choke

Alice In Chains

Cifra: Principal (violão e guitarra)
tom: G
Intro:

   Gtr 1:Em           C/G            x3   G              Asus2
|--0------------0-0----0-------0---|--3----3-----3-3-0----0-------0------|
|--0----0-------0-1----1-------1---|--3----3-----3-3-0--0-0-0---0-0------|
|--0--0-0-0---0-0-0--0-0-0---0-0---|--0--0-0-0---0-0-2--2-2-2---2-2------|
|--2--2-2-2---2-2-2--2-2-2---2-2---|--0--0-0-0---0-0-2--2---2---2--------|
|--2--2---2---2---3--3---3---3-----|--2--2---2---2---0--0---0---0--------|
|--0--0---0---0---3--3---3---3-----|--3--3---3---3-----------------------|

  Gtr 2:
|---------------------------------------------------------------------------|
|----------------------------------------5/7-7-8p7-8/10--/12--12-12/15~-----|
|--2br-0-------------/7---5p4--4b'r-----------------------------------------|
|-----------4h5p4p0---------------------------------------------------------|
|---------------------------------------------------------------------------|
|---------------------------------------------------------------------------|


Verse:

      Em           C/G
|--0------------0-0----0-------0---|
|--0----0-------0-1----1-------1---|
|--0--0-0-0---0-0-0--0-0-0---0-0---|
|--2--2-2-2---2-2-2--2-2-2---2-2---|
|--2--2---2---2---3--3---3---3-----|
|--0--0---0---0---3--3---3---3-----|



Pre Chorus:

Gtr 1: Em  C/G  Em  C/G  Em  C/G  G  Asus2

  Gtr 2:
|---------------------------3---0----|
|---------------------------3---0----|
|-------5-------5-------5---0---2----|
|---2---5---2---5---2---5---0---2----|
|---2---3---2---3---2---3---x---0----|
|---0-------0-------0-------3--------|


Chorus:

   Gtr 1: Bsus2/Gb       Dsus2/A         A               G
|--2----2---2---2--0----0-------0--0----0---0---0--3----3---3---3---|
|--2----2---2---2--3----3---3-3-3--2----2---2---2--3----3---3---3---|
|--4--4-4---4-4-4--2--2-2---2-2-2--2--2-2---2-2-2--0----0---0-0-0---|x4
|--4--4-4---4-4-4--0--0-0---0-0-0--2--2-2---2-2-2--0--0-0---0-0-0---|
|--2--2-2-----2----0--0-0-----0----0--0-0-----0----2--2-2-----2-----|
|--2--2-2-----2------------------------------------3--3-3-----3-----|

  Gtr 2:
|------------------------------------3---3--3-3-------|
|------------------------------------3---3--3-3-------|
|---4---4--4-4-7---7--7-7-2---2--2-2-0---0--0-0-------|x4
|---4---4--4-4-7---7--7-7-2---2--2-2-0---0--0-0-------|
|---2---2--2-2-5---5--5-5-0---0--0-0-x---x--x-x-------|
|---2---2--2-2-5---5--5-5-0---0--0-0-3---3--3-3-------|

Gtr 1 & 2:
|---3--3----3-----|
|---3--3----3-----|
|---0--0----0-----|x3
|---0----0--0-----|
|---2----2--2-----|
|---3----3--3-----|

  Gtr 2:
|----------12-----------12--------|
|---------------------------------|
|--/12~----------12---------------|
|---------------------------------|
|---------------------------------|
|---------------------------------|

Verse/Pre Chorus/Chorus

2nd chorus ending:
|-----------------------|
|-----------------------|
|-----------------------|
|-----------------------|
|------------2--0-0-5---|
|---3--2--3-------------|

Solo Backing:
|---------------------------------------------|
|---------------------------------------------|
|---------------------------------------------|
|--4---4---4-7---7---7-9---9---9-5---5---5----|
|--4---4---4-7---7---7-9---9---9-5---5---5----|
|--2---2---2-5---5---5-7---7---7-3---3---3----|

Solo:
|-------------------------------------------------------------------------------------------------|
|-------------------------------------------------------------------------------------------------|
|------------12b-11~------------9b-r-9-7--7-6-------------12b-11~----------9b-r-------7-6---7-6---|
|--/12-11-9------------9br-br-------------------/12-11-9-----------9br-br-------------------------|
|--------------------------------------------------------------------------------9-10-------------|
|-------------------------------------------------------------------------------------------------|

|--------------------------------------------------------------------------------------|
|-------------------------------------------------------------------------12brbr-12~---|
|------------12b-11~-----------9b-r-------7-6---7-6-------------12b-11~----------------|
|--/12-11-9-----------9br-br---------------------------/12-11-9------------------------|
|------------------------------------9-10----------------------------------------------|
|--------------------------------------------------------------------------------------|

|--12br--------------------------|
|-------12-------------12br------|
|----------11-12-11-12-----------|
|--------------------------------|
|--------------------------------|
|--------------------------------|
Chorus

End on:
|---2------------------------|
|---2------------------------|
|---4------------------------|
|---4------------------------|
|---2-----75-----52--------|
|---2------------------------|
Composição de Jerry Cantrell / William Duvall
Colaboração e revisão:
  • Gustavo Muniz
1.946 exibições
    • ½ Tom
    • A
    • Bb
    • B
    • C
    • Db
    • D
    • Eb
    • E
    • F
    • F#
    • G
    • Ab
  • Adicionar à lista

    0 comentários

    Ver todos os comentários

    Conseguiu tocar?

    2 Tocaram 0 Ainda não

    Grave um vídeo tocando Choke e nos envie!

    00:00 / 00:00
    outros vídeos desta música
    repetir qualidade Automático
    Outros vídeos desta música
    00:00 / 00:00
    Automático

    Cifra Club Pro

    Aproveite o Cifra Club com benefícios exclusivos e sem anúncios
    Cifra Club Pro
    Aproveite o Cifra Club com benefícios exclusivos e sem anúncios
    OK