Cifra Club

Aprenda

Confusion

Alice In Chains

Cifra: Principal (violão e guitarra)
tom: E
Afinação: D# G# C# F# A# D#
(do grave para o agudo.)

Intro: B A D#9 B A D#9 A
Versos:
   D#9        B         A
Eb|------6---|---------|-----5--|
Bb|---6~---6-|------7--|------5-|
Gb|--8------8|---8~--8-|---6~--6|
Db|-8--------|--9-----9|--7-----|
Ab|6---------|-9-------|-7------|
Eb|----------|7--------|5-------|
Repete Algumas Vezes(depende do verso, escute a música para pegar)

Pré-Refrão:

|-----------------------------|
|-----------------------------|
|-----------------------------|
|4~~------4~-4/7~~7/9-x-2--3--|
|4~~------4~-4/7~~7/9-x-2--3--|
|2~~0h2-0-2~-2/5~~5/7-x-0--1--|

Refrão:
|-----------------|
|-----------------|
|-----------------|
|4--4-6--7--7-9---|
|4--4-6--7--7-9---|
|2--2-4--5--5-7---|

Daí vai seguindo a sequência da música, só vai ter mudança na base do solo:

Base do Solo:
|---------------------------|
|---------------------------|
|---------------------------|
|2---2h4---4-5---5/7--7~~---|
|2---2h4---4-5---5/7--7~~---|
|0---0h2---2-3---3/5--5~~-3b|

Daí para e volta com o dedilhado da introdução

Não se esqueça de afinar meio tom abaixo, e ouça bastante a música
para pegar bem o rítmo, pois o Jerry Cantrell é mto terrível na
guitarra. Quem tiver o solo é só botar aqui.
Composição de Jerry Cantrell / Layne Staley / Michael Starr / Mike Starr
Colaboração e revisão:
  • Lucas Peixoto
6.615 exibições
    • ½ Tom
    • A
    • Bb
    • B
    • C
    • Db
    • D
    • Eb
    • E
    • F
    • F#
    • G
    • Ab
  • Adicionar à lista

    0 comentários

    Ver todos os comentários

    Conseguiu tocar?

    2 Tocaram 0 Ainda não

    Grave um vídeo tocando Confusion e nos envie!

    00:00 / 00:00
    outros vídeos desta música
    repetir qualidade Automático
    Outros vídeos desta música
    00:00 / 00:00
    Automático

    Cifra Club Pro

    Aproveite o Cifra Club com benefícios exclusivos e sem anúncios
    Cifra Club Pro
    Aproveite o Cifra Club com benefícios exclusivos e sem anúncios
    OK