Cifra Club

Aprenda

Frogs Acoustic

Alice In Chains

Cifra: Principal (violão e guitarra)
tom: G
Main Riff Repeat 4x,
E|-------------------------------------------|
B|-------------------------------------------|
G|--------0-------0------0------0---0----0---|
D|-------------------------------------------|
A|-----4-------4-------4------4--------------|
E|---0-------0-------0------0-----4----3-----|

Lead, Plays over Main Riff, along with the lyrics

E|-----------------------------------------|
B|------2b-----5-----------7nh-------------------|
G|------------------6b------------------|
D|----------------------------------0----0-|
A|------------------------------------------|
E|---0------0----0----------------4----3---|

Prechorus (oo part)

Repeat so many times then back to verse.
E|------------------------------------|
B|------------------------------------|
G|------------------------------------|
D|------5------5-----5------5---------|
A|----5------4-----5------4-----------|
E|--3-----3------3------3-------------|

After 2nd verse, it goes into Prechorus Then into chorus
E|----------------------------3--------------------------|
B|----------------------------3--------------------------|
G|----------------------------0-----(Strum this chord)---|
D|----------5-------5---------0--------------------------|
A|-------3-------3--3---------2--------------------------|
E|----4-------4--4--4---------3--------------------------|

Repeast chorus 2x then lead plays along (why's it have to be this way)
E|---------------------------8------10b---8-----8-------|
B|-----------------------8-----8-------------8----------|
G|---------------8--7-----------------------------------|
D|------5--6--------------------------------------------|
A|------------------------------------------------------|
E|------------------------------------------------------|

E|---------------------------8--------10b---8-----10b---|
B|-----------------------8------8--------------8--------|
G|--------------8---7-----------------------------------|
D|-----5--6---------------------------------------------|
A|------------------------------------------------------|
E|------------------------------------------------------|

Depois repita isso 4x:
E|-------------------------------------------|
B|-------------------------------------------|
G|--------0-------0------0------0---0----0---|
D|-------------------------------------------|
A|-----4-------4-------4------4--------------|
E|---0-------0-------0------0-----4----3-----|

Depois de tocar o de cima 4x o jerry faz isso:
E|--------12nh-------12nh-------------------------------------|
B|--------12nh-----------12nh----------------------------|
G|--------12nh----12nh-------12nh---------------------------|
D|-------------------------------------------------------|
A|-------------------------------------------------------|
E|---0----------------------------------------------------|

E|-----7nh-----5nh------------------------------------------|
B|-----7nh-----5nh--------------------------------------|
G|-----7nh-----5nh------------------------------------|
D|-------------------------------------------------------|
A|-------------------------------------------------------|
E|-------------------------------------------------------|

That's it besides the adlib at the end, a chord is periodically strummed and muted 4and
lead plays around with its natural harmonics

E|---------------------------------------------0---------|
B|----------7nh-----------7nh------------------0---------|
G|-----------------5nh-----------5nh-----------5nh-------|
D|-------------------------------------------------------|
A|-----------(done repeatedly till this comes up^)-------|
E|-------------------------------------------------------|

E|----------------------------------------------------|
B|-----------------------------------------------------|
G|---------3b-------3-------------------------------------|
D|-------------4-5---------4------------------------------|
A|--------------------4-5---------4b-----------------------|
E|-----0----------------------3-5-------------------------|

E|---------------------------------------------5nh---------|
B|----------5nh-----------5nh------------------5nh----------|
G|-----------------7nh-----------7nh-----------5nh----------|
D|-------------------------------------------------------|
A|-------------------------------------------------------|
E|-------------------------------------------------------|
But like i said, its just like the studio version somebody comment on
some of those fills
Colaboração e revisão:
  • Hate
6.139 exibições
    • ½ Tom
    • A
    • Bb
    • B
    • C
    • Db
    • D
    • Eb
    • E
    • F
    • F#
    • G
    • Ab
  • Adicionar à lista

    0 comentários

    Ver todos os comentários

    Conseguiu tocar?

    0 Tocaram 0 Ainda não

    Grave um vídeo tocando Frogs Acoustic e nos envie!

    00:00 / 00:00
    outros vídeos desta música
    repetir qualidade Automático
    Outros vídeos desta música
    00:00 / 00:00
    Automático

    Cifra Club Pro

    Aproveite o Cifra Club com benefícios exclusivos e sem anúncios
    Cifra Club Pro
    Aproveite o Cifra Club com benefícios exclusivos e sem anúncios
    OK