Cifra Club

Aprenda

Junkhead

Alice In Chains

Cifra: Principal (violão e guitarra)
tom: Eb (forma dos acordes no tom de E) Afinação: Eb Ab Db Gb Bb Eb
Alice In Chains - Junkhead

Afinação: Eb Ab Db Gb Bb eb 

Intro:
  
  Yeah...............            
          B5  Bb5  Bb5     Gb5 F5   F5 E5
Eb|------------------------------------------|
Bb|------------------------------------------|
Gb|------4---3----3--------------------------|
Db|------4---3----3-------4---3----3-2-------|
Ab|------2---1----1-------4---3----3-2-------|
Eb|-----------------3~----2---1----1-0-------|(4x)

Versos 1:

         B5  Bb5  Bb5     Gb5 F5   F5 E5
  P.M.   .   .    . .     .   .    . .              P.M.: Palm Mutting     
Eb|------------------------------------------|
Bb|------------------------------------------|
Gb|------4---3----3--------------------------|
Db|------4---3----3-------4---3----3-2-------|
Ab|------2---1----1-------4---3----3-2-------|
Eb|-----------------3~----2---1----1-0-------|(4x)


Refrão:

   A5  C9  G5  F
   Yeah...      
   Riff             A5   C9   G5
   What's my drug of choice?

   F   Riff        A5      C9  G5  F
   Well, what have you got?

   Riff       A5    C9
   I don't go broke

   G5       F       Riff
   And I do it a lot

Riff:
         
Eb|-------------------|
Bb|-------------------|
Gb|-------------------|
Db|--3-2-0---0--------|
Ab|--------3----------|
Eb|------------3~-----|

Versos 2:
  
          B5  Bb5  Bb5     Gb5 F5   F5 E5
Eb|------------------------------------------|
Bb|------------------------------------------|
Gb|------4---3----3--------------------------|
Db|------4---3----3-------4---3----3-2-------|
Ab|------2---1----1-------4---3----3-2-------|
Eb|-----------------3~----2---1----1-0-------|(4x)

Versos 3:

         B5  Bb5  Bb5     Gb5 F5   F5 E5
  P.M.   .   .    . .     .   .    . .          
Eb|------------------------------------------|
Bb|------------------------------------------|
Gb|------4---3----3--------------------------|
Db|------4---3----3-------4---3----3-2-------|
Ab|------2---1----1-------4---3----3-2-------|
Eb|-----------------3~----2---1----1-0-------|(4x)

Refrão:

   A5  C9  G5  F
   Yeah...      
   Riff             A5   C9   G5
   What's my drug of choice?

   F   Riff        A5      C9  G5  F
   Well, what have you got?

   Riff       A5    C9
   I don't go broke

   G5       F       Riff
   And I do it a lot

Solos:

Solo 1:
        
Eb|-----------------------------------------------------|      Obs: Você pode substituir os slides por bends se quiser.
Bb|-----------------------------------------------------|
Gb|-----------------------------------------------------|
Db|-------------5~---5-5/7-5~--5-5/7-3~--3-2-0----------|
Ab|-----------3--------------------------------3-5------|
Eb|--5~---5-5--------------------------------------3~---|(4x)

Solo 2:

Eb|-----------------------------------------------------|
Bb|-------------8~---8-8/10-8~--8-8/10-6~--6-5----------|
Gb|--------------------------------------------7-5-7----|
Db|--7~---7-7-10-------------------------------------5~-|
Ab|-----------------------------------------------------|
Eb|-----------------------------------------------------|(4x)

Solo 3:

Eb|-----------------15~---15-15/17-15~--15-15/17-13~--13-12------------------|
Bb|--------------13-----------------------------------------15-13-15---------|
Gb|--14~---14-14-----------------------------------------------------12~-----|
Db|--------------------------------------------------------------------------|
Ab|--------------------------------------------------------------------------|
Eb|--------------------------------------------------------------------------|(4x)

Pós-Solo:
  
  Yeah...............
          B5  Bb5  Bb5     Gb5 F5   F5 E5
Eb|------------------------------------------|
Bb|------------------------------------------|
Gb|------4---3----3--------------------------|
Db|------4---3----3-------4---3----3-2-------|
Ab|------2---1----1-------4---3----3-2-------|
Eb|-----------------3~----2---1----1-0-------|(4x)

Versos 4:

         B5  Bb5  Bb5     Gb5 F5   F5 E5
  P.M.   .   .    . .     .   .    . .          
Eb|------------------------------------------|
Bb|------------------------------------------|
Gb|------4---3----3--------------------------|
Db|------4---3----3-------4---3----3-2-------|
Ab|------2---1----1-------4---3----3-2-------|
Eb|-----------------3~----2---1----1-0-------|(4x)


Refrão:

   A5  C9  G5  F
   Yeah...      
   Riff             A5   C9   G5
   What's my drug of choice?

   F   Riff        A5      C9  G5  F
   Well, what have you got?

   Riff       A5    C9
   I don't go broke

   G5       F       Riff
   And I do it a lot

Final:

  Yeah...............
          B5  Bb5  Bb5     Gb5 F5   F5 E5
Eb|------------------------------------------|
Bb|------------------------------------------|
Gb|------4---3----3--------------------------|
Db|------4---3----3-------4---3----3-2-------|
Ab|------2---1----1-------4---3----3-2-------|
Eb|-----------------3~----2---1----1-0-------|(3x)

  P.M.                             . .
Eb|------------------------------------------|
Bb|------------------------------------------|
Gb|------4---3----3--------------------------|
Db|------4---3----3-------4---3----3-2-------|
Ab|------2---1----1-------4---3----3-2-------|
Eb|-----------------3~----2---1----1-0-------|

----------------- Acordes -----------------
B5 : X 2 4 4 X X
Bb5: X 1 3 3 X X
Gb5: 2 4 4 X X X
F5 : 1 3 3 X X X
E5 : 0 2 2 X X X
A5 : X 0 2 2 X X
C9 : X 3 2 0 3 X
G5 : 3 X 0 0 3 3
F  : 1 3 3 2 1 1
Composição de Jerry Cantrell / Layne Staley
Colaboração e revisão:
  • Léo Coli
  • Túlio Alberto
  • Antonio Filho
14.186 exibições
    • ½ Tom
    • A
    • Bb
    • B
    • C
    • Db
    • D
    • Eb
    • E
    • F
    • F#
    • G
    • Ab
  • Adicionar à lista

    0 comentários

    Ver todos os comentários

    Conseguiu tocar?

    8 Tocaram 0 Ainda não

    Grave um vídeo tocando Junkhead e nos envie!

    00:00 / 00:00
    outros vídeos desta música
    repetir qualidade Automático
    Outros vídeos desta música
    00:00 / 00:00
    Automático

    Cifra Club Pro

    Aproveite o Cifra Club com benefícios exclusivos e sem anúncios
    Cifra Club Pro
    Aproveite o Cifra Club com benefícios exclusivos e sem anúncios
    OK