Cifra Club

Aprenda

Killer Is Me

Alice In Chains

Cifra: Principal (violão e guitarra)
tom: B
Tuned down a half step
Intro(2ª guitar)
Eb---------------------0-------------------------------------(12)---|
Bb------------5-------------5----------------------7----------------|
Gb--------6------5--------------6--------8------------8-------------|
Db----7-------------------------------9-------9---------------------|
Ab------------------------------------------------------------------|
Eb------------------------------------------------------------------|

Intro(1ª Guitar)
e|-0--0--0--0--0--0--0-0-0-0-|
b|-10-10-10-10-10-10-6-6-6-6-|
g|-12-12-12-12-12-12-8-8-8-8-|
d|-11-11-11-11-11-11-7-7-7-7-|
a|-0--0--0--0--0--0--0-0-0-0-|
e|-0--0--0--0--6--6--6-6-6-6-|


Those are the only two chords in the verse:
       A             F dis
Don't need a gun,
  A            F dis
Pointed at me,
  A            F dis
No need to run
  A            F dis
The Killer is me....

The chorus is 2 chords, G to F#. Jerry uses sustained 4th notes for variation
   G               F#
Yeah, I'll start over,
   G               F#
Yeah, I can start over,
        Fmaj7
And get over it.......

Chorus
Guitar 1:
    E                           F#
e:--0-0--0--0-0-0--0-0-0--0-0---2-2--2-2-2-2---
B:--0-0--0--0-0-0--0-0-0--0-0---2-2--2-2-2-2---
G:--1-1--1--1-1-1--1-1-1--1-1---3-3--3-3-3-3--- the rythm
D:--2-2--2--2-2-2--2-2-2--2-2---4-4--4-4-4-4--- here is way
A:--2-2--2--2-2-2--2-2-2--2-2---4-4--4-4-4-4--- off...
E:--0-0--0--0-0-0--0-0-0--0-0---2-2--2-2-2-2---
   yeah           i'll start    over 

and then...
                Fmaj7
e:--------------0----
B:--------------1----
G:--------------2----
D:--------------3----
A:--------------0----
E:-------------------
       and get  over it....   

Guitar 2:
    E                                       F# 
e:-----------------------------------------------------------
B:-----------------------------------------------------------
G:-----------1--------------------1------------------3-------
D:------2------2---2---------2------2---2-------4------4---4-
A:----2---2------2---------2---2------2-------4---4------4---
E:--0--------------------0------------------2----------------
   yeah                           I start   over
e:---------------------------------------------
B:---------------------------------------------
G:---------------3-------------------1---------
D:------4---4------4---4--------2------2---2---
A:----4---4---4------4--------2---2------2-----
E:--2-----------------------0------------------
                            yeah
e:-------------------------------------0---------
B:-------------------------------------1---------
G:--------------1----------------------2---------
D:-----2---2------2---2-----4----------3---------
A:---2---2---2------2-----4----4-------0---------
E:-0--------------------2---------2--------------
               I start  over  and get  over it... 

Verse 2:
Same as the first.

Chorus 2:
Same as the first, except that guitar 2 starts like this:
    E
e:------------------------------------------
B:------------------------------------------
G:-----------1---------------------1--------
D:------2------2---2------2---2------2---2--
A:----2---2------2------2---2---2------2----
E:--0-----------------0---------------------

The song finishes on an Fmaj7.
Composição de Jerry Cantrell
Colaboração e revisão:
  • Nuno Franqueira
12.853 exibições
    • ½ Tom
    • A
    • Bb
    • B
    • C
    • Db
    • D
    • Eb
    • E
    • F
    • F#
    • G
    • Ab
  • Adicionar à lista

    0 comentários

    Ver todos os comentários

    Conseguiu tocar?

    4 Tocaram 0 Ainda não

    Grave um vídeo tocando Killer Is Me e nos envie!

    00:00 / 00:00
    outros vídeos desta música
    repetir qualidade Automático
    Outros vídeos desta música
    00:00 / 00:00
    Automático

    Cifra Club Pro

    Aproveite o Cifra Club com benefícios exclusivos e sem anúncios
    Cifra Club Pro
    Aproveite o Cifra Club com benefícios exclusivos e sem anúncios
    OK