Cifra Club

Aprenda

Lab Monkey

Alice In Chains

Cifra: Principal (violão e guitarra)
tom: C (forma dos acordes no tom de C#) Afinação: Eb Ab Db Gb Bb Eb
Drop Db|

Intro:
|---------------------------------------------------------------------------------|
|-----7----9-9br-----------------------------10-x-10--12\10-9----------7----------|
|--/7----7--------------------------------------x---------------------------7-----|
|----------------10~-----9br-7-9p7------------7-x--7---9\-7-6------/7----7----6~--|
|---------------------------------------------------------------------------------|
|-----------------------------------10--------------------------------------------|

Verse:
|----------------------------------|
|----------------------------------|
|----------------------------------|x7
|---/4-----------------------------|
|-------5---------------0----------|
|----------6-----6-5-0-------------|
PM               ........

 G2:
|-----------------------|
|--10-x-10--12\10-9-----|
|-----x-----------------|
|---7-x--7---9\-7-6-----|
|-----------------------|
|-----------------------|

 G1:                             x5   G2:
|----------------------------------|---------------------|
|----------------------------------|---------------------|
|----------------------------------|--/13~--------/13~---|
|---/4-----------------------------|---------------------|
|-------5--------------------------|---------------------|
|----------6-----6-5-0---8-7-0-----|---------------------|

 G2:
|---------------------------------------------------------------------------------------|
|---------------------------------------------------------------------------------------|
|---13\7--7-----------/7---p5---/7-7--------/7---10b--r---7-7--------/15-15--17p15\13~--|
|------------/6~---------------------6-------------------------/6-----------------------|
|---------------------------------------------------------------------------------------|
|---------------------------------------------------------------------------------------|

verse ending:
|------------------------------------|
|------------------------------------|
|------------------------------------|
|---/4-------------------------------|
|-------5----------------6-5---------|
|----------6-------/6-5-------6-5----|


Pre Chorus:

G1:                                                                                       x2
|------------------------------------------------------------------------------------------------|
|------------------------------------------------------------------------------------------------|
|------------------------------------------------------------------------------------------------|
|--3--10--12--------------3--10--0----------------3--10--0--------------3--10--12----------------|
|--3--10--12--------------3--10--0----------------3--10--0--------------3--10--12----------------|
|--3--10--12--15b-15-12---3--10--0--15b-12---/6-5-3--10--0--15b-15-12---3--10--12--15b-12---/6-5-|

 G2:
|------------------------------------------------|
|------3--------3------------3-----------3-------|x8
|---------0--------0------2-----2-----2-----2----|
|----------------------0-----------0-------------|
|-------------3----------------------------------|
|---3--------------------------------------------|

Chorus: x2
|----------------------------------------------------|
|----6---/11-11--8--8--3-----6---/11-11-11--8--8--3--|
|----5---/10-10--7--7--2-----5---/10-10-10--7--7--2--|
|--0-3-0--/8--8--5--5--0---0-3-0--/8--8--8--5--5--0--|
|--0-3-0--/8--8--5--5--0---0-3-0--/8--8--8--5--5--0--|
|--0-3-0--/8--8--5--5--0---0-3-0--/8--8--8--5--5--0--|

|----------------------------------------------------|
|----6---/11-11--8--8--3-----6---/11-11-11--6--6--3--|
|----5---/10-10--7--7--2-----5---/10-10-10--5--5--2--|
|--0-3-0--/8--8--5--5--0---0-3-0--/8--8--8--3--3--0--|
|--0-3-0--/8--8--5--5--0---0-3-0--/8--8--8--3--3--0--|
|--0-3-0--/8--8--5--5--0---0-3-0--/8--8--8--3--3--0--|

Talk box solo:
|----------------------------------------------------------------------------------|
|----------------------------------------------------------------------------------|
|-----------------------------------------------------5b---(5)r--------------------|
|-----------------3b------------------/4--0---------------------6---5brp3h5p3-5/7--|
|----------0h3h5------5~---------------------3h5-----------------------------------|
|---0h3h5-----------------6----6-5-3--------------6--------------------------------|

|-------------------8b-(8)r--8---------------------------------------------|
|-----6-8-8b------6--------8---8b----8b-8-6-8--8brp6---6-------------------|
|-5-7------------------------------------------------7---7-5h7p5h7p5h7b----|
|--------------------------------------------------------------------------|
|--------------------------------------------------------------------------|
|--------------------------------------------------------------------------|

|-------------------------------------|
|-------------------------------------|
|-------------------------------------|
|----/7--7--9\6-6~------0-4-----6~----|
|----------------------------5--------|
|-------------------------------------|

Verse/Prechorus/Chorus
Composição de Alice In Chains
Colaboração e revisão:
  • Gustavo Muniz
358 exibições
    • ½ Tom
    • A
    • Bb
    • B
    • C
    • Db
    • D
    • Eb
    • E
    • F
    • F#
    • G
    • Ab
  • Adicionar à lista

    0 comentários

    Ver todos os comentários

    Conseguiu tocar?

    0 Tocaram 0 Ainda não

    Grave um vídeo tocando Lab Monkey e nos envie!

    00:00 / 00:00
    outros vídeos desta música
    repetir qualidade Automático
    Outros vídeos desta música
    00:00 / 00:00
    Automático

    Cifra Club Pro

    Aproveite o Cifra Club com benefícios exclusivos e sem anúncios
    Cifra Club Pro
    Aproveite o Cifra Club com benefícios exclusivos e sem anúncios
    OK