Cifra Club

Nutshell

Alice In Chains

Cifra: Principal
exibições 188.132
Tom: G
Introdução: Em7  D  C9  Em7 (5x)


Primeira Parte:

Em7  D  C9
           We 
                  Em7  D
Chase misprinted lies
 C9
We 
                  Em7  D
Face the path of time
C9
   And yet I fight

And yet I fight
                  Em7  D
This battle all alone
 C9
No one to cry to
                  Em7
No place to call home


Solo: Em7  D  C9  Em7 (2x)

E|-12--------------------------------------------------|
B|----12-----------------------------------------------|
G|-------12-11b12r11-----------------------------------|
D|-------------------14----~---------------------------|
A|----------------------14b15~-------------------------|
E|-----------------------------------------------------|

E|-10--------------------------------------------------|
B|----8------------------------------------------------|
G|------7----------------------------------------------|
D|--------7b8r7----------------------------------------|
A|--------------10-9~----------------------------------|
E|-----------------------------------------------------|


Segunda Parte:

Em7  D  C9
           My 
                 Em7  D
Gift of self is raped
 C9
My 
            Em7  D
Privacy is raked
C9
   And yet I find

Yet I find
                 Em7  D
Repeating in my head
C9
   If I can't be my own
                 Em7
I'd feel better dead


Solo: Em7  D  C9  Em7

(Parte 1)

E|-12--------------------------------------------------|
B|----12-----------------------------------------------|
G|-------12-11b12r11-----------------------------------|
D|-------------------14----~---------------------------|
A|----------------------14b15~-------------------------|
E|-----------------------------------------------------|

E|-10--------------------------------------------------|
B|----8------------------------------------------------|
G|------7----------------------------------------------|
D|--------7b8r7----------------------------------------|
A|--------------10-9~----------------------------------|
E|-----------------------------------------------------|

(Parte 2)

E|--------------------------12-------------------------|
B|---------------------0--~-12-------------------------|
G|---------------------9/11-12-------------------------|
D|-9b10r9-------------------------------2----4-----2~--|
A|--------10-9b10r9------------------------------------|
E|------------------10--------------0-0----0---0-0-----|

E|--------------------------12-------------------------|
B|---------------------0--~-12-------------------------|
G|---------------------9/11-12-------7-----------------|
D|-9b10r9----------------------------0--------4----2---|
A|--------10-9b10r9------------------------------------|
E|------------------10------------/8--------0----0-----|

E|------------------------------0----0-0-0-0--0-0-0----|
B|-----12-----10----8----7------5~---5-0-0-3b-0-0-5/---|
G|----------------------------5------------------------|
D|-/12-----10-----9----7----5--------------------------|
A|-----------------------------------------------------|
E|-----------------------------------------------------|

E|-----------------------------------------------------|
B|-----------------------------------------------------|
G|-----------------------------------------------------|
D|-----------------9h10h12p10p9h10~~-------------------|
A|---------9h10h12-------------------------------------|
E|-8h10h12---------------------------------------------|

E|-----------------------------------------------------|
B|----------12h13h15p13p12-----------------------------|
G|-11h12h14----------------14p12p11\9~---11b12~~-------|
D|-----------------------------------------------------|
A|-----------------------------------------------------|
E|-----------------------------------------------------|
Acordes para:
    Composição: Jerry Cantrell / Layne Staley / Mike Inez / Sean KinneyColaboração e revisão:
    • Vinícius Dias
    • Samir Valcacio

    0 comentários

      mostrar mais comentários

      Conseguiu tocar?

      27tocaram0ainda não

      Grave um vídeo tocando Nutshell e mande pra gente!

      00:00 / 00:00
      outros vídeos desta música
      repetirqualidadeautomática
      Outro vídeos desta música
        00:00 / 00:00
        automática
        Capítulos
        • Tocando a música
        • Dicas Iniciais / Equipamentos
        • Acordes da música
        • Tocando a Introdução
        • Ritmo da música
        • Tocando o Solo
        • Solo
        • Tocando o Solo Final
        • Solo
        • Solo Final
        • Encerramento
        • Ficha Técnica
        OK