Cifra Club

Aprenda

Pretty Done

Alice In Chains

Cifra: Principal (violão e guitarra)
tom: B (forma dos acordes no tom de C) Afinação: Eb Ab Db Gb Bb Eb
Intro:
    Lead Guitar:  4x
|-----------------------|
|-----------------------|
|-----------------------|
|-----------------------|
|---8br-8br-7b8(12x)----|
|-----------------------|

    Rhythm Guitar:
|-----------------------------------------------------------------------------------------------------|
|-----------------------------------------------------------------------------------------------------|
|-----------------12^12b-12b-12b-12b-12b-12b-12b-12br-------12^13^12----------12b---------12^13^12~---|
|---10br-10br-----------------------------------------------------------------------------------------|
|------------9br-------------------------------------------9br--------------9br----------9br----------|
|-----------------------------------------------------------------------------------------------------|
|-----------------------------------------------------------------------------------------------------|

Info:In verse gives music, the two guitars will play the base guitar riff intro:

Verse:

So you got the thing you wanted
Don't let it go
Though it hurts your hand to hold it
Don't let it show

|-----------------------|
|-----------------------|
|-----------------------| 4x
|-----------------------|
|---8br-8br-7b8(12x)----|
|-----------------------|

Chorus:
B5 F5
   I'm pretty done
B5 F5
   Once a favored son
B5 F5
   I'm pretty done
B5 F5
   Slap me 'round for fun

|------------------------------------|
|------------------------------------|
|------------------------------------| 4x
|---------2/3-3-3-3----3-3-3-3-2-2---|
|---2b-2--2/3-3-3-3----3-3-3-3-2-2---|
|---------0/1-1-1-1----1-1-1-1-0-0---|

Lesson Intro Again:

Info:Riff in the introduction, the guitar part that pulls based arrangements, remained the same until the fourth part, which enters a middle ground:

    Lead Guitar:  4x

|-----------------------|
|-----------------------|
|-----------------------|
|-----------------------|
|---8br-8br-7b8(12x)----|
|-----------------------|

    Rhythm Guitar:
       1 time                                          2 time                 3 time
|---------------------------------------------------------------------------------------------|
|---------------------------------------------------------------------------------------------|
|--------------------12^12b-12b-12b-12b-12b-12b-12b-12br------------12^13^12----------12b-----|
|---10br-10br---------------------------------------------------------------------------------|
|------------9br-------------------------------------------9br------------------9br-----------|
|---------------------------------------------------------------------------------------------|
|---------------------------------------------------------------------------------------------|

And now the middle ground:
    4 time
|-----------------------------------------------|
|---16b--13h16p13--13---------------------------|
|----------------15--15h13--------13h15-13~~----|
|-------------------------13h15p13--------------|
|-----------------------------------------------|
|-----------------------------------------------|

Verse Again:

Finding no pleasant changes
In old enemies
Not a lead a bit part playing
In my story

|-----------------------|
|-----------------------|
|-----------------------| 4x
|-----------------------|
|---8br-8br-7b8(12x)----|
|-----------------------|


Chorus Again:
B5 F5
   I'm pretty done
B5 F5
   Once a favored son
B5 F5
   I'm pretty done
B5 F5
   Slap me 'round for fun

|------------------------------------|
|------------------------------------|
|------------------------------------| 4x
|---------2/3-3-3-3----3-3-3-3-2-2---|
|---2b-2--2/3-3-3-3----3-3-3-3-2-2---|
|---------0/1-1-1-1----1-1-1-1-0-0---|

Info:And now comes a different riff that complements the end of the chorus:

Third Riff:

|-----------------------------------------------------------------|
|-----------------------------------------------------------------|
|-----------------------------------------------------------------| 2x
|---------------------2-------2--------------6-7-8----2-------2---|
|---/8-7-5-3-5-7-8----2-------2----/8-7-5-3--6-7-8----2-------2---|
|-------------------0-0--0-0--0--------------4-5-6--0-0--0-0--0---|

Solo of third riff:
|---7-5-7/10-8------7-5-7-8~------------|
|---------------------------------------|
|---------------------------------------| 2x
|---------------------------------------|
|---------------------------------------|
|---------------------------------------|

I don't care to further amuse you
Never had you how, could I lose you?
Paid in full, I owe no one at all

|-----------------------------------------------------------------|
|-----------------------------------------------------------------|
|-----------------------------------------------------------------| 2x
|---------------------2-------2--------------6-7-8----2-------2---|
|---/8-7-5-3-5-7-8----2-------2----/8-7-5-3--6-7-8----2-------2---|
|-------------------0-0--0-0--0--------------4-5-6--0-0--0-0--0---|

Solo of third riff:
|---7-5-7/10-8------7-5-7-8~------------|     Well last time at the end of a note sweaty
|---------------------------------------|
|---------------------------------------| 2x  Eb|-/12~~-|
|---------------------------------------|
|---------------------------------------|
|---------------------------------------|

Info: Now comes the soil, the same basic guitar riff makes the introduction:
   Rhythm Guitar(Solo):
|-----------------------|
|-----------------------|
|-----------------------| 4x
|-----------------------|
|---8br-8br-7b8(12x)----|
|-----------------------|

Solo:
    1 part
|---------------------------------------------------------------------------|
|-------------12^13b-13b-13b--9h12p9--9-------------------------9-----------|
|-------10-10-----------------------10-10-9------------9h10p9h10--10~~------|
|---9/10-----------------------------------9^10-9--9h10---------------------|
|---------------------------------------------------------------------------|
|---------------------------------------------------------------------------|

    2 part
|---12^^-11-10----------------------------------15^^~~----|
|-------------13-11-9-11-11^12^11--9~~--------------------|
|--------------------------------10-----------------------|
|---------------------------------------------------------|
|---------------------------------------------------------|
|---------------------------------------------------------|

Verse Again:

I'm supposed to smile and ignore it
Better than some
High roads are to fall from
Already hung

|-----------------------|
|-----------------------|
|-----------------------| 4x
|-----------------------|
|---8br-8br-7b8(12x)----|
|-----------------------|

Chorus Again:
B5 F5
   I'm pretty done
B5 F5
   Once a favored son
B5 F5
   I'm pretty done
B5 F5
   Slap me 'round for fun

|------------------------------------|
|------------------------------------|
|------------------------------------| 4x
|---------2/3-3-3-3----3-3-3-3-2-2---|
|---2b-2--2/3-3-3-3----3-3-3-3-2-2---|
|---------0/1-1-1-1----1-1-1-1-0-0---|

Third Riff Again:

|-----------------------------------------------------------------|
|-----------------------------------------------------------------|
|-----------------------------------------------------------------| 2x
|---------------------2-------2--------------6-7-8----2-------2---|
|---/8-7-5-3-5-7-8----2-------2----/8-7-5-3--6-7-8----2-------2---|
|-------------------0-0--0-0--0--------------4-5-6--0-0--0-0--0---|

Solo of third riff:
|---7-5-7/10-8------7-5-7-8~------------|
|---------------------------------------|
|---------------------------------------| 2x
|---------------------------------------|
|---------------------------------------|
|---------------------------------------|

Pushing towards hopeless mission
Curiosity, omission
History colored since the fall

|-----------------------------------------------------------------|
|-----------------------------------------------------------------|
|-----------------------------------------------------------------| 2x
|---------------------2-------2--------------6-7-8----2-------2---|
|---/8-7-5-3-5-7-8----2-------2----/8-7-5-3--6-7-8----2-------2---|
|-------------------0-0--0-0--0--------------4-5-6--0-0--0-0--0---|

Solo of third riff:
|---7-5-7/10-8------7-5-7-8~------------|     Well last time at the end of a note sweaty
|---------------------------------------|
|---------------------------------------| 2x  Eb|-/12~~-|
|---------------------------------------|
|---------------------------------------|
|---------------------------------------|

Last Chorus:

I'm pretty done  Aaahhhh
I'm pretty done  Aaahhhh
I'm pretty done  Aaahhhh
I'm pretty done  Aaahhhh

|-----------------------|     |---7-7---------------|
|-----------------------|     |---9-9-7br8-7b8------|
|-----------------------| 4x  |---9-9---------------|
|-----------------------|     |---------------------|
|---8br-8br-7b8(12x)----|     |---------------------|
|-----------------------|     |---------------------|
Composição de Jerry Cantrell / William Duvall
Colaboração e revisão:
  • Gustavo Muniz
419 exibições
    • ½ Tom
    • A
    • Bb
    • B
    • C
    • Db
    • D
    • Eb
    • E
    • F
    • F#
    • G
    • Ab
  • Adicionar à lista

    0 comentários

    Ver todos os comentários

    Conseguiu tocar?

    0 Tocaram 0 Ainda não

    Grave um vídeo tocando Pretty Done e nos envie!

    00:00 / 00:00
    outros vídeos desta música
    repetir qualidade Automático
    Outros vídeos desta música
    00:00 / 00:00
    Automático

    Cifra Club Pro

    Aproveite o Cifra Club com benefícios exclusivos e sem anúncios
    Cifra Club Pro
    Aproveite o Cifra Club com benefícios exclusivos e sem anúncios
    OK