Cifra Club

Aprenda

Private Hell

Alice In Chains

Cifra: Principal (violão e guitarra)
Tom: F#
(Eb Ab Db Gb Ab Eb)

(intro)
Eb|-----------------------------------------------------------------|
Bb|-----------------------------------------------------------------|
Gb|-------2-------2-------2-------2-------2-------2-------2-------2-|
Db|---0-------0-------2-------2-------0-------0-------2-------2-----|  2x
Ab|-2---2---2---2---0---0---0---0---2---2---2---2---0---0---0---0---|
Eb|-----------------------------------------------------------------|

(verse)
Eb|-----------------------------------------------------------------|
Bb|-----------------------------------------------------------------|
Gb|-------2-------2-------2-------2-------2-------2-------2-------2-|
Db|---0-------0-------2-------2-------0-------0-------2-------2-----|  6x
Ab|-2---2---2---2---0---0---0---0---2---2---2---2---0---0---0---0---|
Eb|-----------------------------------------------------------------|

(pre-chorus) (Lead Guitar)
Eb|----------------------------------------------------------------------------------|
Bb|----------------------------------------------------------------------------------|
Gb|----------------------------------------11b12-----r11-----------------------------|
Db|-9b10-----r9-----------------------------9b10-----r9--------11b12-----r10---------|
Ab|---------------------9b10-----r9-----------------------------9b10-----r9----------|
Eb|----------------------------------------------------------------------------------|

(Rhythm Guitar)
Eb|-------------------3-------------------------------3-------------|
Bb|-----3-----3---------3-----3---------3-----3---------3-----3-----|
Gb|---0-----0---0-----------0---0-----0-----0---0-----------0---0---|
Db|-----------------------------------------------------------------|
Ab|-3-----2-------------------------3-----2-------------------------|
Eb|-----------------3-----2-------------------------3-----2---------|

(Lead Guitar)
Eb|----------------------------------------------------------------------------------|
Bb|----------------------------------------------------------------------------------|
Gb|-11b12-----r11---------------------------9-/11~--------------9-10-/12~------------|
Db|--9b10-----r9--------11b12-----r11---------------------------7--9-/10~------------|
Ab|----------------------9b10-----r9-------------------------------------------------|
Eb|----------------------------------------------------------------------------------|

(Rhythm Guitar)
Eb|-------------------3---------------------------------------------|
Bb|-----3-----3---------3-----3-------------------------------------|
Gb|---0-----0---0-----------0---0---------4-4-4-4-4-4-2-4-5-5-5-5-5-|
Db|---------------------------------4-4-4-4-4-4-4-4-4-2-4-5-5-5-5-5-|
Ab|-3-----2-------------------------2-2-2-2-2-2-2-2-2-0-2-3-3-3-3-3-|
Eb|-----------------3-----2-----------------------------------------|
PM                                  . . . .

(chorus)
Eb|-----------------------------------------------------------------|
Bb|-----------------------------------------------------------------|
Gb|-------------------7-7-7-7-7-----4-4-4-4-4-4-4-4-4-2-4-5-5-5-5-5-|
Db|---5-5---5---5-5---7-7-7-7-7---7-4-4-4-4-4-4-4-4-4-2-4-5-5-5-5-5-|  3x
Ab|---5-5---5---5-5---5-5-5-5-5-0-5-2-2-2-2-2-2-2-2-2-0-2-3-3-3-3-3-|
Eb|-0-3-3---3---3-3-------------------------------------------------|

(chorus Fill)
Eb|---------------------------------|
Bb|---------------------------------|
Gb|-------------------7-7-7-7-7-----|
Db|---5-5---5---5-5---7-7-7-7-7---7-|
Ab|---5-5---5---5-5---5-5-5-5-5-0-5-|
Eb|-0-3-3---3---3-3-----------------|

(guitar solo) (w/ Rhythm Guitar (verse)
Eb|------------------------------------------------------------------------------------|
Bb|-7-7--------7------7----------7----10--------------7--------------------------------|
Gb|---9b11-----9b11---9b11-b11---9b11----9b11-b11-------/9-----9---7-6-b7-r6-----------|
Db|--------------------------------------------------------------------------7---7/9---|
Ab|----------------------------------------------------------------------------7-------|
Eb|------------------------------------------------------------------------------------|

Eb|------------------------------------------------------------------------------------|
Bb|------------------------------------------------------------------------------------|
Gb|-----------6-7-6-7-9b11r9p7--------7-9-9b11-b11-------9b11r9p7-9-7---6-b7-r6--------|
Db|-7-9-9---9------------------7-/9---------------------------------------------7------|
Ab|------------------------------------------------------------------------------------|
Eb|------------------------------------------------------------------------------------|

Eb|------------------------------------------------9-b10-r9-10-12b14-12---10-9---------|
Bb|-------------------------------------10-12---12-----------------------------12------|
Gb|------6-7-6---------6-7-9-9-----9/11------------------------------------------------|
Db|-/7-9-------------------------------------------------------------------------------|
Ab|------------------------------------------------------------------------------------|
Eb|------------------------------------------------------------------------------------|

Eb|------------------------------------------------------------------------------------|
Bb|----10-----10----------5-----5----------3---2-----3---2-----------------------------|
Gb|------------------------------------------------------2-----2h4-2-------------------|
Db|-/9----9-9----------/7---7-7---------/4---4-------------------------4-3-2-0-2b3p0---|
Ab|----------------------------------------------------0-----0-----------------------2-|
Eb|------------------------------------------------------------------------------------|

(verse 6x)
(pre-chorus)
(chorus 4x)

(chorus Fill) (Lead Guitar)
Eb|-----------------------------------------------------------------|
Bb|-----------------------------------------------------------------|
Gb|-/8~--------------8---8-9~-------/11~-----------11-9-11-b11------|
Db|--------------------9--------------------------------------------|
Ab|-----------------------------------------------------------------|
Eb|-----------------------------------------------------------------|

(Rhythm Guitar)
Eb|-----------------------------------------------------------------|
Bb|-----------------------------------------------------------------|
Gb|-4-4-4-4-4-4-4-4-4-2-4-5-5-5-5-5-4-4-4-4-4-4-4-4-4-2-4-5-5-5-5-5-|
Db|-4-4-4-4-4-4-4-4-4-2-4-5-5-5-5-5-4-4-4-4-4-4-4-4-4-2-4-5-5-5-5-5-|
Ab|-2-2-2-2-2-2-2-2-2-0-2-3-3-3-3-3-2-2-2-2-2-2-2-2-2-0-2-3-3-3-3-3-|
Eb|-----------------------------------------------------------------|

(Lead Guitar)
Eb|-------------------------------------|
Bb|-----------10------------------------|
Gb|-9p7---7----------9-/11-/12-\11-9-\7-|
Db|-----9---9---------------------------|
Ab|------------------7-/9--/10-\9--7-\5-|
Eb|-------------------------------------|

(Rhythm Guitar)
Eb|---------------------------------|
Bb|---------------------------------|
Gb|-------------------7-7-7-7-7-----|
Db|---5-5---5---5-5---7-7-7-7-7---7-|
Ab|---5-5---5---5-5---5-5-5-5-5-0-5-|
Eb|-0-3-3---3---3-3-----------------|

(lead Guitar Outro - w/ Rhythm Guitar (verse)
Eb|---------------------------------------------------------------------------|
Bb|---------------------------------------------------------------------------|
Gb|-4~--------------4-/6~------------7~-----------/9-\6~----------------------|
Db|---------------------------------------------------------------------------|  4x
Ab|-2~--------------2-/4~------------5~-----------/7-\4~----------------------|
Eb|---------------------------------------------------------------------------|

(ending)
Eb|---------------------------------------------------------------------------|
Bb|---------------------------------------------------------------------------|
Gb|-4~--------------(4)----------------(4)----------------(4)-----------------|
Db|---------------------------------------------------------------------------|
Ab|-2~--------------(2)----------------(2)----------------(2)-----------------|
Eb|---------------------------------------------------------------------------|

| /  slide up
| \  slide down
| b  bend
| h  hammer-on
| p  pull-off
| PM palm mute
| () sustain note
| ~  vibrato
Composição de Jerry Cantrell
2.150 exibições
    • ½ Tom
    • A
    • Bb
    • B
    • C
    • Db
    • D
    • Eb
    • E
    • F
    • F#
    • G
    • Ab
  • Adicionar à lista

    0 comentários

    Mostrar mais comentários

    Conseguiu tocar?

    0 Tocaram 0 Ainda não

    Grave um vídeo tocando Private Hell e mande pra gente!

    00:00 / 00:00
    outros vídeos desta música
    repetir qualidade Automático
    Outros vídeos desta música
    00:00 / 00:00
    Automático

    Cifra Club Pro

    Aproveite o Cifra Club com benefícios exclusivos e sem anúncios
    7 dias grátis
    Cifra Club Pro
    Aproveite o Cifra Club com benefícios exclusivos e sem anúncios
    7 dias grátis
    OK