Cifra Club

Aprenda

Sludge Factory

Alice In Chains

Cifra: Principal (violão e guitarra)
tom: A (forma dos acordes no tom de A#) Afinação: Eb Ab Db Gb Bb Eb
Intro:                 
E|---------------------------------------------
B|- ---------3------3-3-3--3----3-3-3--3-3-3---
G|- ---------2------2-2-2--2----2-2-2--2-2-2---    (4x)
D|- --1--3---0------0-0-0--0----0-0-0--0-0-0---
A|- --1--1---0------0-0-0--0----0-0-0--0-0-0---
E|- --1--1---0------0-0-0--0----0-0-0--0-0-0---

         F           A#        D5
E|-------------------------------------
B|-----------------------------3-~~~~--
G|-----------------------------2-~~~~--
D|------1--------3-------------0-~~~~--
A|------1--------1-------------0-------
E|------1--------1-------------0-------

Refrão Verse 1:
               D5

E|----------------------
B: -------------3-------
G: -------------2-------   .
D: ---1--3--1---0-------
A: ---1--1--1---0-------
E: ---1--1--1---0-------

Refrão Verse 2:
              A5

E|------------------
B|- ----------------
G|- ----------------
D|- --1--3--1---2---
A|- --1--1--1---2---
E|- --1--1--1---0---

Refrão 1: 
 [Parte A] solo refrão

E|----0--0--0---0---0--------------------------------------------
B|- --3--4--5--/10--8--------------------------------------------
G|- ------------------------7-6-5~~~-----------------------------
D|- --------------------------------------5-4-3~~~-------------5-
A|- ------------------------------------------------------3-4h5--
E|- -------------------------------------------------------------

[Parte B] solo refrão

E|--------0--0--0-----------------------------------------
B|- ------3--4--5-----------------------------------------
G|- --2------------5-4-2-4-4b-~~~--4-2------2-------------
D: ---2----------------------------------------3----------
A: ---0--------------------------------------------3h4--5-
E: -------------------------------------------------------

Solo principal: Jerry Cantrell

E|-------------------------------------------------------------------------
B|- ----------6------6---8---7---6~~---------6-----6~~----------6------6~~-
G|- ---5--7-----7------------------------7-7-----7----------7-7------7-----
D: ------------------------------------------------------------------------
A: ------------------------------------------------------------------------
E: ------------------------------------------------------------------------

E|------------------------------------------------------------------
B|- ----------8---7---6---------------------------------------------
G|- ---7-7----------------7---5h7---5-7-7~~-------------------------
D: -----------------------------------------------------------------
A: -----------------------------------------------------------------
E: -----------------------------------------------------------------

E|------------------------------------------------------------------
B|- ----------------------------------------------------------------
G|- --5h7b5-----------5---------------------------------------------
D: --------------7~~---------7--6--5-----3~~----5b3-----------------
A: -----------------------------------------------------------5~~---
E: -----------------------------------------------------------------

e: --x----x----------------------------------------------------------------
B|---x----x----------------------------------------------------------------
G: --x----x-----------------------------------------------------5----------
D: --1----3--------------------------------------------3-5b7---------7-5---
A: --1----1------5~~----3---5-3--5-5-----3--5------------------------------
E: --1----1----------------------------------------------------------------

E|---------------------------------------------------- 8-----------------------------
B: ------------------------------- 6--------6------8^ (full) ---8b6---------6--------
G: ------------ -- 5----7-7-7-7--------7---------------------------------7--------7--
D: ---- 5b7--------------------------------------------------------------------------
A: ----------------------------------------------------------------------------------
E: ----------------------------------------------------------------------------------
Composição de Jerry Cantrell
Colaboração e revisão:
  • Marley Sj
704 exibições
    • ½ Tom
    • A
    • Bb
    • B
    • C
    • Db
    • D
    • Eb
    • E
    • F
    • F#
    • G
    • Ab
  • Adicionar à lista

    0 comentários

    Ver todos os comentários

    Conseguiu tocar?

    1 Tocaram 0 Ainda não

    Grave um vídeo tocando Sludge Factory e nos envie!

    00:00 / 00:00
    outros vídeos desta música
    repetir qualidade Automático
    Outros vídeos desta música
    00:00 / 00:00
    Automático

    Cifra Club Pro

    Aproveite o Cifra Club com benefícios exclusivos e sem anúncios
    Cifra Club Pro
    Aproveite o Cifra Club com benefícios exclusivos e sem anúncios
    OK