Cifra Club

Aprenda

Take Her Out

Alice In Chains

Cifra: Principal (violão e guitarra)
tom: F#
(D# G# C# F# A# D#)

(lead (guitar Intro - w/ Rhythm (guitar verse)
Eb|--------------------------------------------------------------------------|
Bb|--------------------------------------------------------------------------|
Gb|--------------------------------------------------------------------------|
Db|-----6-7---9---10---12-14-12---10---9---6---7---9---9h10------------------|
Ab|-7-9-------------------------------------------------------10~------------|
Eb|--------------------------------------------------------------------------|

Eb|---------------------------------------------------------------------------------|
Bb|---------------------------------------------------------------------------------|
Gb|---------------------------------------------------------------------------------|
Db|-----6-7---9---10---12-14-12---10---9---6---7---9---9h10-------------------------|
Ab|-7-9-------------------------------------------------------10~--------9b10r9-7~--|
Eb|---------------------------------------------------------------------------------|

(verse)
Eb|-----------------------------------------------------------------|
Bb|-----------------------------------------------------------------|
Gb|-----------------------------------------------------------------|
Db|-2---------2-2-2-2-2-2-2-2-2-2-4-2---------2-2-2-2-2-2-2-2-2-2-4-|
Ab|-2-2-2-2-2-0-0-2-2-3-3-3-3-3-3-3-2-2-2-2-2-0-0-2-2-3-3-3-3-3-3-3-|
Eb|---0-0-4-4-------------------------0-0-4-4-----------------------|
PM  . . . . . . . . . . . . . . . . . . . . . . . . . . . . . . . .

Eb|-----------------------------------------------------------------|
Bb|-----------------------------------------------------------------|
Gb|-----------------------------------------------------------------|
Db|-2---------2-2-2-2-2-2-2-2-2-2-4-2---------2-2-2-2-2-2-2-2-2-2-2-|
Ab|-2-2-2-2-2-0-0-2-2-3-3-3-3-3-3-3-2-2-2-2-2-0-0-2-2-3-3-3-3-3-3-3-|
Eb|---0-0-4-4-------------------------0-0-4-4-----------------------|
PM  . . . . . . . . . . . . . . . . . . . . . . . . . . .

(chorus)
Eb|-----------------------------------------------------------------|
Bb|-----------------------------------------------------------------|
Gb|-4-4-4-----------------------------------------------------------|
Db|-2-2-2-5-5-5-5-2-2-2-2-2-2-2-2-2-------5-5-5-5-2-2-2-2-2-2-2-2-2-|
Ab|-------3-3-3-3-0-0-0-0-0-0-0-0-0-5-5-5-3-3-3-3-0-0-0-0-0-0-0-0-0-|
Eb|---------------------------------3-3-3---------------------------|

Eb|-----------------------------------------------------------------|
Bb|-----------------------------------------------------------------|
Gb|-4-4-4-----------------------------------------------------------|
Db|-2-2-2-5-5-5-5-2-2-2-2-2-2-2-2-2-------5-5---------2-2-2-2-2-2-2-|
Ab|-------3-3-3-3-0-0-0-0-0-0-0-0-0-5-5-5-3-3-5-5-5-5-0-0-0-0-0-0-0-|
Eb|---------------------------------3-3-3-----3-3-3-3---------------|

Lead (guitar (w/ Rhythm (guitar verse)
Eb|--------------------------------------------------------------------------------|
Bb|--------------------------------------------------------------------------------|
Gb|--------------------------------------------------------------------------------|
Db|-----6-7---9---10---12-14-12---10---9---6---7---9---9h10------------------------|
Ab|-7-9-------------------------------------------------------10~--------10-10-/12-|
Eb|--------------------------------------------------------------------------------|

Eb|-------------------------------------------------------------12---------------15-\-12-|
Bb|------------------------------------12b-------------------12----13-12------13----\-12-|
Gb|------------------------------------12b----------------13-------------14---------\----|
Db|-----6-7---9---10---12-14-12---10---------14--------14--------------------------------|
Ab|-7-9----------------------------------------------------------------------------------|
Eb|--------------------------------------------------------------------------------------|

(verse)
(chorus)

(guitar Solo (w/ Rhythm (guitar chorus)
Eb|-------------------------------------------------------------------7-------|
Bb|-----------------------------------------------------------2---3-------8---|
Gb|-7b9r7-5-5-b7r5-4-4-b5r4-2h4p2---2-2p0-0-0-2-2--p0h2--2------2-----------x-|
Db|-------------------------------------------------------------------------x-|
Ab|---------------------------------------------------------0-------0---0-----|
Eb|---------------------------------------------------------------------------|

Eb|-----------12----------------------------------------------------------------|
Bb|-12-13-15------15b17---15-13-12b13r12-\10-10~--------------------------------|
Gb|-----------------------------------------------------------------------------|
Db|-----------------------------------------------------------------------------|
Ab|---------------------------------------------------------------/3---2-0-0~---|
Eb|---------------------------------------------------------3-2-0---------------|

Lead (guitar (w/ Rhythm (guitar verse)
Eb|---------------------------------------------------------------------------|
Bb|---------------------------------------------------------------------------|
Gb|---------------------------------------------------------------------------|
Db|-2----------------(2)----------------(2)----------------(2)----------------|
Ab|-2----------------(2)----------------(2)----------------(2)----------------|
Eb|-0----------------(0)----------------(0)----------------(0)----------------|

Eb|------------------------------------------------------14h15p14----15-14----------------------|
Bb|---------------------------------------------------------------17-------17-15----15------/17-|
Gb|------------------------------------------------------------------------------16------16-----|
Db|-/9~----6-------/10~------7-------/14~-------------------------------------------------------|
Ab|---------------------------------------------------------------------------------------------|
Eb|---------------------------------------------------------------------------------------------|

(verse)
(chorus 2x)

Lead (guitar Outro (w/ Rhythm (guitar verse)
Eb|------------------------------------------------------------------------------------------|
Bb|------------------------------------------------------------------------------------------|
Gb|------------------------------------------------------------------------------------------|
Db|-/9~----6-------/10~------7-------/14~----------------------------------------------------|
Ab|------------------------------------------------------------------------------------------|
Eb|------------------------------------------------------------------------------------------|

Eb|-----------------------------------------------------------------------------------------|
Bb|------------------------------------------------------12-----12---------13---------13----|
Gb|----------9---------------------11---------11b12r11-9------9----9----12----12---12----11-|
Db|-9b10r9-9-----------10b11r10-10----------------------------------------------------------|
Ab|-----------------------------------------------------------------------------------------|
Eb|-----------------------------------------------------------------------------------------|

| /  slide up
| \  slide down
| b  bend
| h  hammer-on
| p  pull-off
| PM palm mute
| x  mute string
| () sustain note
| ~  vibrato
Composição de Jerry Cantrell
1.057 exibições
    • ½ Tom
    • A
    • Bb
    • B
    • C
    • Db
    • D
    • Eb
    • E
    • F
    • F#
    • G
    • Ab
  • Adicionar à lista

    0 comentários

    Ver todos os comentários

    Conseguiu tocar?

    0 Tocaram 0 Ainda não

    Grave um vídeo tocando Take Her Out e nos envie!

    00:00 / 00:00
    outros vídeos desta música
    repetir qualidade Automático
    Outros vídeos desta música
    00:00 / 00:00
    Automático

    Cifra Club Pro

    Aproveite o Cifra Club com benefícios exclusivos e sem anúncios
    Cifra Club Pro
    Aproveite o Cifra Club com benefícios exclusivos e sem anúncios
    OK