Cifra Club

Aprenda

The Devil Put Dinosaurs Here

Alice In Chains

Cifra: Principal (violão e guitarra)
tom: Eb (forma dos acordes no tom de E) Afinação: Eb Ab Db Gb Bb Eb
Intro/Verse:                    weird backround guitar:
|------------1--0---1----------|-------------------------------|
|---------3-------3---3--------|-------------------------------|
|------1-----------------------|-------------------------------|
|---2--------------------------|-----2~--------/3--------------|
|------------------------------|-------------------------------|
|------------------------------|-------------------------------|

This is just another way to play the verses that's a bit easier
|----------------0----------------|
|-------------6------6------------|
|----------7-------7---7----------|
|-------6-------------------------|
|----7----------------------------|
|---------------------------------|


Pre Chorus:

G1: x3                     end on:
|-------------------------|--------|
|-------------------------|--------|
|-------------------------|--------|
|---4-------2-------------|---4----|
|---4-------2-------------|---4----|
|---2-------0----/6b------|---2----|

 G2:
|------------------------------------------------------------------------------------------|
|------------------------------------------------------------------------------------------|
|--------------------2b-(2)r-3~---3b'r---------------------------------2b-(2)r-3~---3b'r---|
|---4~----4h5p4\2~----------------------2---4-4/5~-----4~----4h5p4\2~----------------------|
|------------------------------------------------------------------------------------------|
|------------------------------------------------------------------------------------------|

|---------------------------|
|---------------------------|
|---------------------------|
|--2----/4-5-----/10-9------|
|---------------------------|
|--0----/2-3------/8-7------|

Chorus:
G1:
|---------------------------------------------------------------------------------|
|---------------------------------------------------------------------------------|
|---------------------------------------------------------------------------------|
|--5/7---7\5--/10-9----5/7---7\5--/10-9----5/7---/12-10---10-9---5/7---7\5---2----|
|--5/7---7\5--/10-9----5/7---7\5--/10-9----5/7---/12-10---10-9---5/7---7\5---2----|
|--3/5---5\3---/8-7----3/5---5\3---/8-7----3/5---/10--8----8-7---3/5---5\3---0----|

 G2: sounds cool if you use octaves
|---------------------------------|
|---------------------------------|
|---/11-12-14-12---12-11~---[9]---|x4
|---------------------------------|
|---------------------------------|9th fret is played last time only
|---------------------------------|

|----------------------------------------------|
|--/12-----\8-----/15-----\12-----/19~---------|
|----------------------------------------------|
|----------------------------------------------|
|----------------------------------------------|
|----------------------------------------------|


Verse/Pre Chorus/Chorus


2nd Chorus ending:
 G1:                             G2:
|------------------------------|---------------------------------------------|
|--------3-------3-------------|---------------------------------------------|
|------------------------------|--/11-12-14-12---12-12b--12----9b--9---------|
|-----5-------5------0---2-----|---------------------------------------------|
|--3---------------0-----2-----|---------------------------------------------|
|----------3-------------0-----|---------------------------------------------|

G1:
|---------------------------------------0----|
|-----------------3-------3----3-------------|
|--------------------------------------------|played throughout the solo
|--------------5-------5--------------2------|
|---/7-6-5--3---------------5-------2--------|
|-------------------3-------------0----------|

Solo:
|--------------------------------------------------------------------------------------------|
|---------------------------------------------------------------------------7b-(7)r--5h7-5~--|
|----5-------4-4-5/7-5-4~------5-------4-4-4/5-4~-----5-------4-4-5/7-5-4~-------------------|
|------5-5-7---------------------5-5-7------------------5-5-7--------------------------------|
|--------------------------------------------------------------------------------------------|
|--------------------------------------------------------------------------------------------|

|---------------15---14b-14-12h14-12---12---12--12---14b-(14)r-12h14-12-----------|
|--/12-12-12-12------------------------15b--15b-15b----------------------12-------|
|----------------------------------------------------------------------------12---|
|---------------------------------------------------------------------------------|
|---------------------------------------------------------------------------------|
|---------------------------------------------------------------------------------|

Pre Chorus/Chorus


3rd Chorus ending:

 G1: x8                     G2:
|-----------------------|---------------------------|
|-----------------------|---------7b-r--------------|
|-----5-----------------|---------------------------|
|-----5---5---2---4-----|---------4b-r--------------|
|-----3---5---2---4-----|---------------------------|
|---------3---0---2-----|---------------------------|

Outro:
|----------------------------------------------|
|----------------------------------------------|
|--------0--------------------0----------0-----|
|-----5---------0---------------4----------4---|
|--3---------5-------0-----4----------4--------|
|---------3-------0-----2----------2-----------|

Composição de Jerry Cantrell
Colaboração e revisão:
  • Gustavo Muniz
1.450 exibições
    • ½ Tom
    • A
    • Bb
    • B
    • C
    • Db
    • D
    • Eb
    • E
    • F
    • F#
    • G
    • Ab
  • Adicionar à lista

    0 comentários

    Ver todos os comentários

    Conseguiu tocar?

    0 Tocaram 0 Ainda não

    Grave um vídeo tocando The Devil Put Dinosaurs Here e nos envie!

    00:00 / 00:00
    outros vídeos desta música
    repetir qualidade Automático
    Outros vídeos desta música
    00:00 / 00:00
    Automático

    Cifra Club Pro

    Aproveite o Cifra Club com benefícios exclusivos e sem anúncios
    Cifra Club Pro
    Aproveite o Cifra Club com benefícios exclusivos e sem anúncios
    OK