Cifra Club

Aprenda

When The Sun Rose Again

Alice In Chains

Cifra: Principal (violão e guitarra)
tom: Db
(Eb Ab Db Gb Ab Eb)

(intro/verse)
Eb|-4-4-4-4-4-------4-4-4-4-4-4-------4-4-4-4-4-------4-4-4-4-4-4-------|
Bb|-4-4-4-4-4-------4-4-4-4-4-4-------4-4-4-4-4-------4-4-4-4-4-4-------|
Gb|-4-4-4-4-4-------4-4-4-4-4-4-------4-4-4-4-4-------4-4-4-4-4-4-------|
Db|-6-6-6-6-6-------6-6-6-6-6-6-------6-6-6-6-6-------6-6-6-6-6-6-------|
Ab|-6-6-6-6-6-------6-6-6-6-6-6-------6-6-6-6-6-------6-6-6-6-6-6-------|
Eb|-4-4-4-4-4-0-4h5-4-4-4-4-4-4-0-0-0-4-4-4-4-4-0-4h5-4-4-4-4-4-4-0-0-0-|

(pre-chorus)
Eb|-----------------------------------------------------|
Bb|-----------------------------------------------------|
Gb|-----------------------------------------------------|
Db|-11-11---9---9---7---7---6---6-6---4-4---2---4-2-----|
Ab|-9--9----7---7---5---5---4---4-4---2-2---0---2-0-----|
Eb|-----------------------------------------------------|
                                                        |
Eb|-------9-------7-------5-------4-------0-------4--)4-|
Bb|----11-------9-------7-------5-------4-------4----)4-|
Gb|-11------9-------7-------6---------4-----2--------)4-|
Db|--------------------------------------------------)x-|
Ab|--------------------------------------------------)x-|
Eb|--------------------------------------------------)x-|

(verse)
(pre-chorus)

(chorus)
Eb|-7-----7-----7---2-----2-----2---0-----0-----0---4-----4-----4---|
Bb|-7-----7-----7---2-----2-----2---0-----0-----0---4-----4-----4---|
Gb|-8-----8-----8---3-----3-----3---1-----1-----1---4-----4-----4---|
Db|-9-----9-----9---4-----4-----4---2-----2-----2---6-----6-----6---|
Ab|-9-----9-----9---4-----4-----4---2-----2-----2---6-----6-----6---|
Eb|-7-----7-----7---2-----2-----2---0-----0-----0---4-----4-----4---|
                                                                    |
Eb|---2---0---2---0-------0-----------4---7---4---7---4---7---4---7-|
Bb|-----4-------4-----0-------0---0-5---5-------5-------4-------4---|
Gb|-4-------------------3-------3-----------------------------------|
Db|-----------------------------------------------------------------|
Ab|-----------------------------------------------------------------|
Eb|-----------------------------------------------------------------|

Eb|-4-4-4-4-4-------4-4-4-4-4-4-------4-4-4-4-4-------4-4-4-4-4-4-------|
Bb|-4-4-4-4-4-------4-4-4-4-4-4-------4-4-4-4-4-------4-4-4-4-4-4-------|
Gb|-4-4-4-4-4-------4-4-4-4-4-4-------4-4-4-4-4-------4-4-4-4-4-4-------|
Db|-6-6-6-6-6-------6-6-6-6-6-6-------6-6-6-6-6-------6-6-6-6-6-6-------|
Ab|-6-6-6-6-6-------6-6-6-6-6-6-------6-6-6-6-6-------6-6-6-6-6-6-------|
Eb|-4-4-4-4-4-0-4h5-4-4-4-4-4-4-0-0-0-4-4-4-4-4-0-4h5-4-4-4-4-4-4-0-0-0-|

(guitar Solo) (w/ chorus Rhythm (guitar)
Eb|---------------------------------------------------------------------------------|
Bb|-------------------------------------------------------------------------7-------|
Gb|-11-b13---11-9-8-9-8-6---4-6-6b8r6p4---4-6---------4-6-6b7r6-b8-----6-b8---6b8r6-|
Db|-------------------------------------6-----6---4h6-------------------------------|
Ab|---------------------------------------------------------------------------------|
Eb|---------------------------------------------------------------------------------|

Eb|---------------------------------------------------------------------------|
Bb|---------------------------------------------------------------------------|
Gb|-4~---------------------------6-\4-------3-b4r3----------------------------|
Db|------------4-4---4-4h6-4---4-4-\2-----2--------1h2p1~---------------------|
Ab|-------2-/4----------------------------------------------------------------|
Eb|---------------------------------------------------------------------------|

(verse)
(pre-chorus)
(chorus)

| /  slide up
| \  slide down
| b  bend
| r  release bend
| h  hammer-on
| p  pull-off
| )  arpeggiate chord
| ~  vibrato
Composição de Jerry Cantrell
2.906 exibições
    • ½ Tom
    • A
    • Bb
    • B
    • C
    • Db
    • D
    • Eb
    • E
    • F
    • F#
    • G
    • Ab
  • Adicionar à lista

    0 comentários

    Ver todos os comentários

    Conseguiu tocar?

    2 Tocaram 0 Ainda não

    Grave um vídeo tocando When The Sun Rose Again e nos envie!

    00:00 / 00:00
    outros vídeos desta música
    repetir qualidade Automático
    Outros vídeos desta música
    00:00 / 00:00
    Automático

    Cifra Club Pro

    Aproveite o Cifra Club com benefícios exclusivos e sem anúncios
    Cifra Club Pro
    Aproveite o Cifra Club com benefícios exclusivos e sem anúncios
    OK