Cifra Club

10.000 Razones

Aline Barros

Cifra: Principal (violão e guitarra)
Tom: D
Intro:   G       D   A        Bm  G     D    A4     A

E|---5-5h7-7-5----------------------5-----------------|
B|-7-----------5h7-7-5-5h7-5-3-0--0---5/7-3-3h5-5p3\2-|
G|----------------------------------------------------|
D|----------------------------------------------------|
A|----------------------------------------------------|
E|----------------------------------------------------|

Coro
      G        D
Bendecid Al Señor
A     Bm
Alma mia
    G            D  A4 A
Tu nombre santo alabar
       G       D
Canta como nunca
G   A    Bm
Oh mi alma
    G       A   (G A Bm) (G A D)
Tu nombre Alabaré

    G      D
El sol nació
          A     Bm
Ya es um nuevo dia
G         D      A         Bm
Es tiempo de Cantarte otra vez
G            D
Pase lo que pase
  A             Bm . . .
Y lo que há de venir
G          D
Hazme que cante
          A     D
Hasta el atardecer

Coro
        G      D
Tienes tanto amor
        A     Bm
Y eres tan paciente
G             D
Tu nombre es grande
      A   Bm
Y tu corazon
     G         D
Por que eres Bueno
      A     Bm . . .
Seguiré cantando
G           D          A    D
Diez mil razones para adorar

Coro
       G       A   D
...Tu nombre Alabaré


         G       D   A        Bm  G     D    A4     A

E|---5-5h7-7-5----------------------5-----------------|
B|-7-----------5h7-7-5-5h7-5-3-0--0---5/7-3-3h5-5p3\2-|
G|----------------------------------------------------|
D|----------------------------------------------------|
A|----------------------------------------------------|
E|----------------------------------------------------|


         G       D   G A Bm     G    A     D

E|---5-5h7-7-5-------5/7-7/9--------------------------|
B|-7-----------5h7-7---------5/7-7-5-3-5-5/7-5-3-3----|
G|----------------------------------------------------|
D|----------------------------------------------------|
A|----------------------------------------------------|
E|----------------------------------------------------|


     G    D
Y en ese día
        A     Bm
Que no tenga fuerzas
G           D
El fin se acerca
         A     Bm
Y es mi tiempo ya
 G     D          A     Bm . . .
Aún mi alma seguirá cantando
G          D             A    D
Diez mil años hasta la eternidad

Coro

    G       A   Bm
Tu nombre Alabaré 

    G       A   Bm
Tu nombre Alabaré

    G       A
Tu nombre Alabaré


         G       D   A        Bm  G     D    A4     A

E|---5-5h7-7-5----------------------5-----------------|
B|-7-----------5h7-7-5-5h7-5-3-0--0---5/7-3-3h5-5p3\2-|
G|----------------------------------------------------|
D|----------------------------------------------------|
A|----------------------------------------------------|
E|----------------------------------------------------|


Canta como nunca...

         G       D   G A Bm     G    A     D

E|---5-5h7-7-5-------5/7-7/9--------------------------|
B|-7-----------5h7-7---------5/7----------------------|
G|----------------------------------------------------|
D|----------------------------------------------------|
A|----------------------------------------------------|
E|----------------------------------------------------|
exibições 7.649
Acordes para:
    Composição: Matt Redman Colaboração e revisão:
    • Jairo Neto

    0 comentários

    mostrar mais comentários

    Conseguiu tocar?

    0 tocaram 0 ainda não

    Grave um vídeo tocando 10.000 Razones e mande pra gente!

    00:00 / 00:00
    outros vídeos desta música
    repetir qualidade Automático
    Outros vídeos desta música
    00:00 / 00:00
    Automático
    OK