Cifra Club

Tempo

Aline Barros

Cifra: Principal (violão e guitarra)
tom: E
[Intro] F#m  A  C#m7  B
        F#m  A  C#m7  B

[Primeira Parte]

                F#m
Você está preparado?
  A                       E       B
O impossível hoje Deus pode fazer
           F#m
Tem vinho novo pro vaso
     A                  E         B
Que se coloca à disposição do Rei

[Segunda Parte]

                  C#m7
O que o olho não viu
                      A
O que o ouvido não ouviu
                      E
O tempo que nunca chegou
                        B
A porta que nunca se abriu

                       C#m7
E o sol que nunca brilhou
               A
Agora vai brilhar
                      E
É o que Deus já preparou
                        B
Pra todo aquele que o amar

[Pré-Refrão]

                   F#m        A
Há algo novo preparado pra você
                    C#m7       B
Há um milagre reservado pra você
                    F#m       A
Será que você pode hoje perceber
                   C#m7                    B
Que Deus faz tudo novo, que Deus faz tudo novo

                   F#m        A
Há algo novo preparado pra você
                    C#m7       B
Há um milagre reservado pra você
                    F#m       A
Será que você pode hoje perceber
                   C#m7                    B
Que Deus faz tudo novo, que Deus faz tudo novo

[Refrão]

F#m  E/G#  A  C#m7  B
Oh
F#m  E/G#  A  C#m7  B
Oh
F#m  E/G#  A  C#m7  
Oh
       B
O seu tempo chegou
F#m  E/G#  A  C#m7  
Oh
        B
O impossível vai acontecer 

F#m  E/G#  A  C#m7  
Oh
       B
O seu tempo chegou
F#m  E/G#  A  C#m7  
Oh
        B
O impossível vai acontecer 

[Ponte]

C#m7
Ah, a muralha está caindo
E
Ah, já está acontecendo
F#m                       A       
Ah, venham derramar do poder do poder do poder de Deus 

C#m7
Ah, a muralha está caindo
E
Ah, já está acontecendo
F#m                       A       
Ah, venham derramar do poder do poder do poder de Deus 

C#m7
Ah, a muralha está caindo
E
Ah, já está acontecendo
F#m                       A       
Ah, venham derramar do poder do poder do poder de Deus 

C#m7
Ah, a muralha está caindo
E
Ah, já está acontecendo
F#m                       A       
Ah, venham derramar do poder do poder do poder de Deus 

[Solo] F#m  E/G#  A  C#m7  B
       F#m  E/G#  A  C#m7  B

E|-/14-14-14-14-12/14-14-12-9-9-9-9-9-9-9---|
B|------------------------------------------|
G|------------------------------------------|
D|------------------------------------------|
A|------------------------------------------|
E|------------------------------------------|

E|-7\4-4-4-4-4-7-7-7-7----------------------|
B|----------------------5-5-5-4-4-4-4-4-----|
G|------------------------------------------|
D|------------------------------------------|
A|------------------------------------------|
E|------------------------------------------|

E|-/14-14-14-14-12/14-14-12-9-9-9-9-9-9-9---|
B|------------------------------------------|
G|------------------------------------------|
D|------------------------------------------|
A|------------------------------------------|
E|------------------------------------------|

E|-7\4-4-4-4-4-7-7-7-7--2-2-2---------------|
B|-----------------------------5-5-4-4------|
G|------------------------------------------|
D|------------------------------------------|
A|------------------------------------------|
E|------------------------------------------|

[Pré-Refrão]

                   F#m        A
Há algo novo preparado pra você
                    C#m7       B
Há um milagre reservado pra você
                    F#m       A
Será que você pode hoje perceber
                   C#m7                    B
Que Deus faz tudo novo, que Deus faz tudo novo
00:00 / 00:00
Outros vídeos desta música
Repetir
Outros vídeos desta música
Compositor não encontrado.
Colaboração e revisão:
  • Thiago Almeida
9.885 exibições
    • ½ Tom
    • A
    • Bb
    • B
    • C
    • Db
    • D
    • Eb
    • E
    • F
    • F#
    • G
    • Ab
  • Adicionar à lista

    0 comentários

    Ver todos os comentários

    Entre para oCifra Club PRO

    Tenha acesso a benefícios exclusivos no App e no Site

    • Chega de anúncios

    • Prioridade de compra em lançamentos

    • Mais recursos no app do Afinador

    • Atendimento Prioritário

    • Descontos nos produtos Cifra Club

    • Ajude a produzir mais conteúdo

    00:00 / 00:00

    Cifra Club Pro

    Aproveite o Cifra Club com benefícios exclusivos e sem anúncios
    Cifra Club Pro
    Aproveite o Cifra Club com benefícios exclusivos e sem anúncios
    OK