Cifra Club

Crawl

Alkaline Trio

Cifra: Principal (violão e guitarra)
Tom: E
ive seen a lot of wrong versions of this so i assume its time to do it right
so...


intro
e-4------0------0---------------|
b-5------0------0---------------|
g-6------2------1---------------|
d-6-(x8)-2-(x8)-2-(x8)-66442211-|
a-4------0------2------00000000-|
e---------------0---------------|

verse
e-------------------------------|
b-------------------------------|
g-4------6------2---------------|
d-4-(x8)-6-(x8)-2-(x8)-66442211-|
a-2------4------0------00000000-|
e-------------------------------|

chorus
e-----------------------------------------------------|
b-----------------------------------------------------|
g----------99988899-4444444466666666-2222222244444444-|
d-22222222-xxxxxxxx-xxxxxxxxxxxxxxxx-2222222244444444-|(play A and B riff 2x)
a-22222222-77766677-2222222244444444-0000000022222222-|
e-00000000--------------------------------------------|

intro II
e--------------------------|
b--------------------------|
g----99-99-99----99-2------|
d-22-99-99-99-22-99-2-(x8)-|
a-22-77-66-77-22-77-0------|
e-00----------00-----------|

outro
e----------------------------|
b----------------------------|
g-------2------6------4------|
d-2-----2-(x8)-6-(x8)-4-(x8)-|
a-2(x8)-0------4------2------|
e-0--------------------------|


it goes-

intro
verse
intro
verse
chorus
intro II
verse
chorus
outro

the only parts im not sure about are the outro and hte second intro
and if you want to have a little fun playing this-
play around in this panatonic throughout the song


e--------------------------9-12-|
b---------------------9-12------|
g----------------9-11-----------|
d-----------9-11----------------|
a------9-11---------------------|
e-9-12--------------------------|
exibições 625
Acordes para:
    Composição: Alkaline Trio

    0 comentários

    mostrar mais comentários

    Conseguiu tocar?

    0 tocaram 0 ainda não

    Grave um vídeo tocando Crawl e mande pra gente!

    00:00 / 00:00
    outros vídeos desta música
    repetir qualidade Automático
    Outros vídeos desta música
    00:00 / 00:00
    Automático
    OK