Cifra Club

Private Eye

Alkaline Trio

Cifra: Principal (violão e guitarra)
Tom: G
# - Abafado
~ - Deixar Soar

INTRO:
e|--------------------------------------------------------|
B|--------------------------------------------------------|
G|--12-12-12-12-12-12-11-11-14-14-14-14-12-12-12-12-------|4X
D|--x--x--x--x--x--x--x--x--x--x--x--x--x--x--x--x--9--10-|
A|--10-10-10-10-10-10-9--9--12-12-12-12-10-10-10-10-9--10-|
E|--------------------------------------------------7--8--|

FIM:
e|--------|
B|--------|
G|--------|
D|-9-10-9-|
A|-9-10-9-|
E|-7-8--7-|

VERSO:
e|-----------------------------------------------------------------|
B|-----------------------------------------------------------------|
G|---------------------------------4-4-4-4-4-4-4-4-5-5-5-5-5-5-5-5-|4X(Na quarta vez 
D|-5-5-5-5-5-5-4-4-7-7-7-7-5-5-5-5-4-4-4-4-4-4-4-4-5-5-5-5-5-5-5-5-|  para o abafado
A|-5-5-5-5-5-5-4-4-7-7-7-7-5-5-5-5-2-2-2-2-2-2-2-2-3-3-3-3-3-3-3-3-|  no último acorde)
E|-3-3-3-3-3-3-2-2-5-5-5-5-3-3-3-3---------------------------------|
   # # # # # # # # # # # # # # # # # # # # # # # # # # # # # # # #

e|--------------------------------------------------------|
B|--------------------------------------------------------|
G|--12-12-12-12-12-12-11-11-14-14-14-14-12-12-12-12-------|2X
D|--x--x--x--x--x--x--x--x--x--x--x--x--x--x--x--x--9--10-|
A|--10-10-10-10-10-10-9--9--12-12-12-12-10-10-10-10-9--10-|
E|--------------------------------------------------7--8--|

VERSO:
e|-----------------------------------------------------------------|
B|-----------------------------------------------------------------|
G|---------------------------------4-4-4-4-4-4-4-4-5-5-5-5-5-5-5-5-|2X
D|-5-5-5-5-5-5-4-4-7-7-7-7-5-5-5-5-4-4-4-4-4-4-4-4-5-5-5-5-5-5-5-5-|
A|-5-5-5-5-5-5-4-4-7-7-7-7-5-5-5-5-2-2-2-2-2-2-2-2-3-3-3-3-3-3-3-3-|
E|-3-3-3-3-3-3-2-2-5-5-5-5-3-3-3-3---------------------------------|
   # # # # # # # # # # # # # # # # # # # # # # # # # # # # # # # #

OUTRO 1:
e|---------------------------------------------------------------|
B|---------------------------------------------------------------|
G|-12-12---12-12---12-12---12-12-4-4-4-4-4-4-4-4-5-5-5-5-5-5-5-5-|
D|-12-12---12-12---12-12---12-12-4-4-4-4-4-4-4-4-5-5-5-5-5-5-5-5-|
A|-10-10---10-10---10-10---10-10-2-2-2-2-2-2-2-2-3-3-3-3-3-3-3-3-|
E|---------------------------------------------------------------|
                                 # # # # # # # # # # # # # # # #

e|-----------------------------------------------------------------|
B|-----------------------------------------------------------------|
G|---------------------------------4-4-4-4-4-4-4-4-5-5-5-5-5-5-5-5-|
D|-5-5-5-5-5-5-4-4-7-7-7-7-5-5-5-5-4-4-4-4-4-4-4-4-5-5-5-5-5-5-5-5-|
A|-5-5-5-5-5-5-4-4-7-7-7-7-5-5-5-5-2-2-2-2-2-2-2-2-3-3-3-3-3-3-3-3-|
E|-3-3-3-3-3-3-2-2-5-5-5-5-3-3-3-3---------------------------------|
   # # # # # # # # # # # # # # # # # # # # # # # # # # #

REFRÃO:
e|-----------------------------------------------------------------|\
B|-----------------------------------------------------------------| |
G|---------------------------------4-4-4-4-4-4-4-4-7-7-7-7-7-7-7-7-| |
D|-5-5-5-5-5-5-5-5-5-5-5-5-5-5-5-5-4-4-4-4-4-4-4-4-7-7-7-7-7-7-7-7-| |
A|-5-5-5-5-5-5-5-5-5-5-5-5-5-5-5-5-2-2-2-2-2-2-2-2-5-5-5-5-5-5-5-5-| |
E|-3-3-3-3-3-3-3-3-3-3-3-3-3-3-3-3---------------------------------| |
                                                                     |2X
e|-----------------------------------------------------------------| |
B|-----------------------------------------------------------------| |
G|---------------------------------9-9-9-9-9-9-9-9-7-7-7-7-7-7-7-7-| |
D|-5-5-5-5-5-5-5-5-5-5-5-5-5-5-5-5-9-9-9-9-9-9-9-9-7-7-7-7-7-7-7-7-| |
A|-5-5-5-5-5-5-5-5-5-5-5-5-5-5-5-5-7-7-7-7-7-7-7-7-5-5-5-5-5-5-5-5-| |
E|-3-3-3-3-3-3-3-3-3-3-3-3-3-3-3-3---------------------------------|/

OUTRO 2:
e|--------------------------------------------------------|
B|--------------------------------------------------------|
G|--12-12-12-12-12-12-11-11-14-14-14-14-12-12-12-12-------|2X
D|--x--x--x--x--x--x--x--x--x--x--x--x--x--x--x--x--9--10-|
A|--10-10-10-10-10-10-9--9--12-12-12-12-10-10-10-10-9--10-|
E|--------------------------------------------------7--8--|

VERSO:
e|-----------------------------------------------------------------|
B|-----------------------------------------------------------------|
G|---------------------------------4-4-4-4-4-4-4-4-5-5-5-5-5-5-5-5-|2X
D|-5-5-5-5-5-5-4-4-7-7-7-7-5-5-5-5-4-4-4-4-4-4-4-4-5-5-5-5-5-5-5-5-|
A|-5-5-5-5-5-5-4-4-7-7-7-7-5-5-5-5-2-2-2-2-2-2-2-2-3-3-3-3-3-3-3-3-|
E|-3-3-3-3-3-3-2-2-5-5-5-5-3-3-3-3---------------------------------|
   # # # # # # # # # # # # # # # # # # # # # # # # # # # # # # # #

REFRÃO:
e|-----------------------------------------------------------------|\
B|-----------------------------------------------------------------| |
G|---------------------------------4-4-4-4-4-4-4-4-7-7-7-7-7-7-7-7-| |
D|-5-5-5-5-5-5-5-5-5-5-5-5-5-5-5-5-4-4-4-4-4-4-4-4-7-7-7-7-7-7-7-7-| |
A|-5-5-5-5-5-5-5-5-5-5-5-5-5-5-5-5-2-2-2-2-2-2-2-2-5-5-5-5-5-5-5-5-| |
E|-3-3-3-3-3-3-3-3-3-3-3-3-3-3-3-3---------------------------------| |
                                                                     |2X
e|-----------------------------------------------------------------| |
B|-----------------------------------------------------------------| |
G|---------------------------------9-9-9-9-9-9-9-9-7-7-7-7-7-7-7-7-| |
D|-5-5-5-5-5-5-5-5-5-5-5-5-5-5-5-5-9-9-9-9-9-9-9-9-7-7-7-7-7-7-7-7-| |
A|-5-5-5-5-5-5-5-5-5-5-5-5-5-5-5-5-7-7-7-7-7-7-7-7-5-5-5-5-5-5-5-5-| |
E|-3-3-3-3-3-3-3-3-3-3-3-3-3-3-3-3---------------------------------|/

OUTRO 3:
e|-------------------------------------------------------------|
B|-------------------------------------------------------------|
G|-5-5-5-5-5-5-5-5-5-5-5-5-5-5-7-7-7-7-7-7-7-7-7-7-7-7-7-7-7-7-|
D|-5-5-5-5-5-5-5-5-5-5-5-5-5-5-7-7-7-7-7-7-7-7-7-7-7-7-7-7-7-7-|
A|-3-3-3-3-3-3-3-3-3-3-3-3-3-3-5-5-5-5-5-5-5-5-5-5-5-5-5-5-5-5-|
E|-------------------------------------------------------------|

e|--------------------------------------------------|
B|--------------------------------------------------|
G|--12-12-12-12-12-12-11-11-14-14-14-14-12-12-12-12-|4X
D|--x--x--x--x--x--x--x--x--x--x--x--x--x--x--x--x--|
A|--10-10-10-10-10-10-9--9--12-12-12-12-10-10-10-10-|
E|--------------------------------------------------|

REFRÃO:
e|-----------------------------------------------------------------|\
B|-----------------------------------------------------------------| |
G|---------------------------------4-4-4-4-4-4-4-4-7-7-7-7-7-7-7-7-| |
D|-5-5-5-5-5-5-5-5-5-5-5-5-5-5-5-5-4-4-4-4-4-4-4-4-7-7-7-7-7-7-7-7-| |
A|-5-5-5-5-5-5-5-5-5-5-5-5-5-5-5-5-2-2-2-2-2-2-2-2-5-5-5-5-5-5-5-5-| |
E|-3-3-3-3-3-3-3-3-3-3-3-3-3-3-3-3---------------------------------| |
                                                                     |2X
e|-----------------------------------------------------------------| |
B|-----------------------------------------------------------------| |
G|---------------------------------9-9-9-9-9-9-9-9-7-7-7-7-7-7-7-7-| |
D|-5-5-5-5-5-5-5-5-5-5-5-5-5-5-5-5-9-9-9-9-9-9-9-9-7-7-7-7-7-7-7-7-| |
A|-5-5-5-5-5-5-5-5-5-5-5-5-5-5-5-5-7-7-7-7-7-7-7-7-5-5-5-5-5-5-5-5-| |
E|-3-3-3-3-3-3-3-3-3-3-3-3-3-3-3-3---------------------------------|/

FINAL:
e|----|
B|----|
G|----|
D|-5~-|
A|-5~-|
E|-3~-|

Taí Gente,uma tablatura bem explicadinha pra ninguem se perder!!!Espro q todos
consigam tocar essa música muito legal!!!
exibições 2.415
Acordes para:
    Composição: Alkaline Trio Colaboração e revisão:
    • Luiz Fernando

    0 comentários

    mostrar mais comentários

    Conseguiu tocar?

    0 tocaram 0 ainda não

    Grave um vídeo tocando Private Eye e mande pra gente!

    00:00 / 00:00
    outros vídeos desta música
    repetir qualidade Automático
    Outros vídeos desta música
    00:00 / 00:00
    Automático
    OK