Cifra Club

Aprenda

Stupid Kid

Alkaline Trio

Cifra: Principal (violão e guitarra)
Tom: B
Riff 1 (Intro):

e|--------------------------------------------------|
B|--------------------------------------------------|
G|-444--444-998866-----998866-444-998866-----998866-|
D|-444--444-xxxxxx-666-xxxxxx-444-xxxxxx-666-xxxxxx-|
A|-222--222-776644-666-776644-222-776644-666-776644-|
E|-----------------444-------------------444--------|
  |___|

 Abafado

Verso:

e|-------------------------|
B|-------------------------|
G|-4-----------------------|
D|-4-------------4-------2-| 4X
A|-2-------------4-------2-|
E|---------------2-------0-|


Riff 1


Verso


Refrão:

e|------------------------------------|    |------------------|
B|------------------------------------|    |------------------|
G|-4444444444444444-------------------| 3X |------------------|
D|-4444444444444444-66666666-44444444-|    |-2~-----4~-----2~-|
A|-2222222222222222-66666666-44444444-|    |-2~-----4~-----2~-|
E|------------------44444444-22222222-|    |-0~-----2~-----0~-|


Riff 1


Verso


Refrao


Riff 2:

e|--------------------------------------------------------------------------------------------|
B|--------------------------------------------------------------------------------------------|
G|-444-998866-----998866-444-998866-----998866-4444444444444444-333333-4444444444-999-888-666-|
D|-444-xxxxxx-666-xxxxxx-444-xxxxxx-666-xxxxxx-xxxxxxxxxxxxxxxx-xxxxxx-xxxxxxxxxx-xxx-xxx-xxx-|
A|-222-776644-666-776644-222-776644-666-776644-2222222222222222-111111-2222222222-777-666-444-|
E|------------444-------------------444-------------------------------------------------------|

Refrao
Composição de Alkaline Trio
Colaboração e revisão:
  • Ramon
4.166 exibições
    • ½ Tom
    • A
    • Bb
    • B
    • C
    • Db
    • D
    • Eb
    • E
    • F
    • F#
    • G
    • Ab
  • Adicionar à lista

    0 comentários

    Mostrar mais comentários

    Conseguiu tocar?

    0 Tocaram 0 Ainda não

    Grave um vídeo tocando Stupid Kid e mande pra gente!

    00:00 / 00:00
    outros vídeos desta música
    repetir qualidade Automático
    Outros vídeos desta música
    00:00 / 00:00
    Automático

    Cifra Club Pro

    Aproveite o Cifra Club com benefícios exclusivos e sem anúncios
    7 dias grátis
    Cifra Club Pro
    Aproveite o Cifra Club com benefícios exclusivos e sem anúncios
    7 dias grátis
    OK