Cifra Club

Amor Eterno

Allison

Cifra: Principal (violão e guitarra)
tom: B
intro

E|-----------14-------|
B|-12--12-11----12----|
G|---11------------11-| x4
D|--------------------|
A|--------------------|
E|--------------------|

se queda tocando en el verso 1 hasta el 2

    B
(1)Tú eres la tristeza,  de mis ojos
   E
que lloran en silencio por tu amor
  G#m
me miro en el espejo y veo en mi rostro
 F#
el tiempo que he sufrido por tu adiós
    B
(2)Obligo a que te olvide el pensamiento
    E
Pues Siempre estoy pensando en el ayer
    G#m
Prefiero estar dormido que despierto
  F#
De tanto que me duele que no estes
             B
(3)como quisiera hay
      E
que tú vivieras
          G#m                  F#            E
que tus ojitos jamás se hubieran cerrado nunca
   F#           B
y estar mirándolos
                      E
(4)amor eterno e inolvidable
             G#m              F#
tarde o temprano estare contigo

E|------------------------------------7-----7-----|
B|-----------------2-2-2-3-3-3-5-5-4-5--4-5---4-5-|
G|-2-2-2-3-3-3-5-5--------------------------------|
D|------------------------------------------------|
A|------------------------------------------------|
E|------------------------------------------------|
     E    F#        B
para seguir amándonos

E|-----------14-------|
B|-12--12-11----12----|
G|---11------------11-| x4
D|--------------------|
A|--------------------|
E|--------------------|
      B
(5)Yo he sufrido tanto por tu ausencia
     E
Desde ese día hasta hoy no soy feliz
    G#m
Y aun tengo muy tranquila mi conciencia
     F#
 se que pude  haber  hecho más por ti
      B
(6)Oscura soledad estoy viviendo
     E
la misma soledad de tu sepulcro
   G#m
tu eres el amor del cual yo tengo,
       F#
el mas triste recuerdo de acapulco
           B
(3)como quisiera hay
      E
que tú vivieras
          G#m                  F#            E
que tus ojitos jamás se hubieran cerrado nunca
   F#           B
y estar mirándolos
                      E
(4)amor eterno e inolvidable
             G#m              F#
tarde o temprano estare contigo

E|-------------------------------------7----7-----|
B|-----------------2-2-2-3-3-3-5-5-4-5--4-5---4-5-|
G|-2-2-2-3-3-3-5-5--------------------------------|
D|------------------------------------------------|
A|------------------------------------------------|
E|------------------------------------------------|
     E    F#        B
para seguir amándonos

E|-----------14-------|
B|-12--12-11----12----|
G|---11------------11-| x4
D|--------------------|
A|--------------------|
E|--------------------|
Compositor não encontrado.
3 exibições
    • ½ Tom
    • A
    • Bb
    • B
    • C
    • Db
    • D
    • Eb
    • E
    • F
    • F#
    • G
    • Ab
  • Adicionar à lista

    0 comentários

    Ver todos os comentários

    Conseguiu tocar?

    0 Tocaram 0 Ainda não

    Grave um vídeo tocando Amor Eterno e nos envie!

    00:00 / 00:00
    Outros vídeos desta música
    Repetir Qualidade Automático
    Outros vídeos desta música
    00:00 / 00:00
    Automático

    Cifra Club Pro

    Aproveite o Cifra Club com benefícios exclusivos e sem anúncios
    Cifra Club Pro
    Aproveite o Cifra Club com benefícios exclusivos e sem anúncios
    OK