Cifra Club

Eres como el mar

Allison

Cifra: Principal (violão e guitarra)
tom: Gm
Intro
E|-----------------------------------------|
B|-------3---------3-----------------------|
G|----0--0---------0-----0p2s3-------------|
D|--1----1-----0---0--3--------------------|
A|-----------------------------------------|
E|-----------3-----------------------------|

X2
D|---8--10---3--5|
A|---6---8---3--5|
E|---6---8---1--3|
X2
G|--15--14--10--12|
D|--xx--xx--xx--xx|
A|--13--12---8--10|
E|-------------------|

Verso
Eres como el mar…    no dudas en matar

D|--8--------------------5------------------|
A|--6--------------------5------------------|
E|--6--------------------3------------------|
Acompaña al verso
E|------------------------1--1s3------------|
B|------3------3p4--------------------0p2s3-|
G|----0-------------3p5-------------3-------|
D|--1---------------------------------------|

No me puedo ir….    Estoy atado a ti
D|--8--------------------5------------------|
A|--6--------------------5------------------|
E|--6--------------------3------------------|
Acompaña al verso
E|-----------------------1--1s3-------------|
B|------3------3p4--------------------------|
G|----0-------------3p5---------------------|
D|--1---------------------------------------|


Pre -coro
Y espero la orilla un poco de ti…
D|--8-8-xxx-8-8---8-8-xxx-8-8-10-10-10|
A|--6-6-xxx-6-6---6-6-xxx-6-6-10-10-10|
E|--6-6-xxx-6-6---6-6-xxx-6-6--8--8--8|

Anclado a tu muelle dispuesto a  morir
D|--5-5-xxx-5-5--5-5-xxx-5-5-3-3-3|
A|--5-5-xxx-5-5--5-5-xxx-5-5-3-3-3|
E|--3-3-xxx-3-3--3-3-xxx-3-3-1-1-1|

Quisiera tus olas salvajes cruzar
D|--8-8-xxx-8-8---8-8-xxx-8-8-10-10-10|
A|--6-6-xxx-6-6---6-6-xxx-6-6-10-10-10|
E|--6-6-xxx-6-6---6-6-xxx-6-6--8--8--8|

Entrar en tu centro dejarte nadar
D|--5-5-xxx-5-5--5-5-xxx-5-5-3-3-3|
A|--5-5-xxx-5-5--5-5-xxx-5-5-3-3-3|
E|--3-3-xxx-3-3--3-3-xxx-3-3-1-1-1|

En el último traste va acompañado de otro acorde
E|-------------------------------------------------|
B|---11-11-11-11-11-11-11-11-11-11-11-11-11-11-11-11|
G|---10-10-10-10-10-10-10-10-10-10-10-10-10-10-10-10|
D|--------------------------------------------------|
Coro
Es tu fuego…       que me quema por dentro…
D|--8-8-8-8-8-8-8-8-10-10-10-10-10-10-5-5-5-5-5--3-3-3|
A|--6-6-6-6-6-6-6-6-10-10-10-10-10-10-5-5-5-5-5--3-3-3|
E|--6-6-6-6-6-6-6-6--8--8--8--8--8--8-3-3-3-3-3--1-1-1|

Intro y todo se repite desde el verso hasta el coro.

Puente
E|---------------------------------------------------|
B|-11--11--11--11--11--11--10--10--10--10--10--10----|
G|---10--10--10--10--10--10--10--10--10--10--10--10--|
D|---------------------------------------------------|

E|--10---10---10--10----------------|
B|----11---11---11---11-8--8--8--8--|
G|-----------------------8--8--8--8-|
D|----------------------------------|

E|--------------------------------------11----------------------------------|
B|---11s12-11s12-11s12-11s12-11s12s11------6-8------------------------------|
G|------------------------------------11-------7s8-7s8-7s8-7s8-7s8-7s2------|
D|---------------------------------------------------------------------3-1--|
X2
E|------------------------|
B|---9s11----10---3s6-6s8-|
G|---------10-------------|

Luego se rasguea lentamente
D|--5-5-5-5-5|
A|--5-5-5-5-5|
E|--3-3-3-3-3|

Se inicia un último coro y va acompañado de lo siguiente

Se repite en todo el coro
E|---------------------------------------------|
B|---11-11-11-10-10-10-------------------10p11-|
G|---------------------10-10-10-12-12-12-------|

se termina la canción con esto:
X2
D|--8-8-8---8-8-8---8-8---8-8-8--8-8-8--8-10|
A|--6-6-6---6-6-6---8-8---6-6-6--6-6-6--6-10|
E|--6-6-6---6-6-6---6-6---6-6-6--6-6-6--6--8|

D|--5-5-5---5-5-5---5-5---5-5-5---5-5-5---3-3-3|
A|--5-5-5---5-5-5---5-5---5-5-5---5-5-5---1-1-1|
E|--3-3-3---3-3-3---3-3---3-3-3---3-3-3---1-1-1|

E|---------------------------3----------------------6-5--------------------3---|
B|-----3---3p4---------------3---------------------------------------------3---|
G|---0----------3p5----------------0p2s3s2p0-------------0p2s3s2p0-------------|
D|-1-----------------3s5---0-----3------------3p0-1-----3---------3p0----0-----|
A|-----------------------------------------------------------------------------|
E|-----------------------3---------------------------------------------3-------|
Composição de Erik Canales
1 exibições
    • ½ Tom
    • Am
    • Bbm
    • Bm
    • Cm
    • C#m
    • Dm
    • Ebm
    • Em
    • Fm
    • F#m
    • Gm
    • G#m
  • Adicionar à lista

    0 comentários

    Ver todos os comentários

    Conseguiu tocar?

    0 Tocaram 0 Ainda não

    Grave um vídeo tocando Eres como el mar e nos envie!

    00:00 / 00:00
    Outros vídeos desta música
    Repetir Qualidade Automático
    Outros vídeos desta música
    00:00 / 00:00
    Automático

    Cifra Club Pro

    Aproveite o Cifra Club com benefícios exclusivos e sem anúncios
    Cifra Club Pro
    Aproveite o Cifra Club com benefícios exclusivos e sem anúncios
    OK