Cifra Club

Lili

Allison

Cifra: Principal (violão e guitarra)
tom: G
INTRO:
(G , C , Em)


E|----------------------------------------------------------------------|
B|--------2/3-3-3-3-3---------------------------------------------------|
G|---------------------4-2-0-2-4-2-0--0-2-0-2-4-2-0--0-2-0-2-4-2-0------|
D|-----------------------------------------------------------------4-4/5|


G
4 ruedas y un camino hacen de esto mi destino
C
y tu
Em                     G
no sales de aquí,
C
de aquí de aquí de mi

Em
por que no importa la hora
C
el dia ni la moda
Em
si es de noche o de dia
C
por que aun asi puedo ver

G
eres mi luz
D                     Em
mi salvación
                C
quédate siempre mi amor

G
eres mi luz
D                      Em
mi salvación
        C
el fuego de mi corazón

G
cuando al fin clarea el dia
entra el sol por mi cortina
C
y tu
Em
no sales de aquí
C
de aquí de aquí de mi
Em
por que no importa la hora
C
el dia ni la moda
Em
si es de noche o de dia
C
por que aun asi puedo ver

G
eres mi luz
D                    Em
mi salvación
C
quédate siempre mi amor

G
eres mi luz
D                 Em
mi salvación
C
el fuego de mi corazón




G  O:
E|---3/4-5------|--3/4-5---------|--------------------------|
B|--------3-----|--------3-------|-------------5-----------|
G|----------3---|----------3/5-3-|-----10-8-7-5--8-7-7/0---|

E|---3/4-5------|--3/4-5---------|-----------------7----------|
B|--------3-----|--------3-------|----------------------------|
G|----------3---|----------3/5-3-|-----15-13-12-10---8-7-7/0---|

E|---3/4-5------|--3/4-5---------|---------------------------------------|
B|--------3-----|--------3-------|---------------------------------------|
G|----------3---|----------3/5-3-|-----15-13-10-13/15---13-10-13/15-15/0--|

E|---3/4-5------|--3/4-5---------|-------------------| |
B|--------3-----|--------3-------|-------------1/3---| |
G|----------3---|----------3/5-3-|-----10-8-7-5--0---| |
Composição de Allison
    • ½ Tom
    • A
    • Bb
    • B
    • C
    • Db
    • D
    • Eb
    • E
    • F
    • F#
    • G
    • Ab
  • Adicionar à lista

    0 comentários

    Ver todos os comentários

    Conseguiu tocar?

    0 Tocaram 0 Ainda não

    Grave um vídeo tocando Lili e nos envie!

    00:00 / 00:00
    Outros vídeos desta música
    Repetir Qualidade Automático
    Outros vídeos desta música
    00:00 / 00:00
    Automático

    Cifra Club Pro

    Aproveite o Cifra Club com benefícios exclusivos e sem anúncios
    Cifra Club Pro
    Aproveite o Cifra Club com benefícios exclusivos e sem anúncios
    OK