Cifra Club

Me Cambio

Allison

Cifra: Principal (violão e guitarra)
tom: Em
 INTRO:-

    Intro las 2 liras con distor
    Escuchen la rola para acomodar los ritmos de cada acorde

E|-----------------------------------------------------|
B|-----------------------------------------------------|
G|----------4-------5-------9--------7-----------------|
D|---5------4x6-----5x6-----9x4------7x4---------------| X2
A|---5x6----2-------3-------7--------5-----------------|
E|---3-------------------------------------------------|



                  Guitarra  1



E|-----------------------------------------------------|
B|-----------------------------------------------------|
G|----------4-------5-------9--------7-----------5-----|
D|---5------2-------5-------9--------7-----------5-----|
A|---5------2-------3-------7--------5-----------3-----|
E|---3-------------------------------------------------|



                  Guitarra   2


E|-----------------------------------------------------|
B|-----------------------------------------------------|
G|-----------------------------------------------------|
D|---------2x6--------3x6--------7x6-------5x6---------|
A|-----------------------------------------------------|
E|---3x6-----------------------------------------------|
PM:  ..........................................

E|E|E|E|E|--------------------------------------------------------------|-||||
VERSO:-

         Guitarra 1 y 2
   Los Rasgeos son rapidos

   Pues me cambio  todo por un auto nuevo dinero y lujos que.....

E|-----------------------------------------------------|
B|-----------------------------------------------------|
G|------------------5-------9--------7-----------------|
D|---5--------------5x6-----9x6------7x6---------------| X2
A|---5x6------------3-------7--------5-----------------|
E|---3-------------------------------------------------|
PM: .........................................

E|E|E|E|E|--------------------------------------------------------------|-||||
CORO:-


                     Guitarra 1 sin PM

       lo tirooo...... oooooo uoooooooo me cambio........

E|-----------------------------------------------------|
B|-----------------------------------------------------|
G|------------------5-------9--------7-----------------|
D|---5--------------5x6-----9x6------7x6---------------| X2
A|---5x6------------3-------7--------5-----------------|
E|---3-------------------------------------------------|



                    Guitarra 2
          Escucha la rola para Escuchar los ritmos


E|-----------------------------------------------------|
B|-----------------------------------------------------|
G|-----------------------------------------------------|
D|-----5-4-0------5-4-0--------5-4-0---------5--4------| X1
A|-----------------------------------------------------|
E|-----------------------------------------------------|

E|E|E|E|E|--------------------------------------------------------------|-||||
PUENTE:-


                     Guitarra 1



E|-----------------------------------------------------|
B|-----------------------------------------------------|
G|------------------5-------9--------7-----------------|
D|---5--------------5x6-----9x6------7x6---------------| X2
A|---5x6------------3-------7--------5-----------------|
E|---3-------------------------------------------------|


                   Guitarra 2



E|-----------------------------------------------------|
B|-----------------------------------------------------|
G|-----------------------------------------------------|
D|---4/5--5-5-5-5-5-5-5| x3-------5--4--0---------------|
A|-----------------------------------------------------|
E|-----------------------------------------------------|



             Aqui entra el bajo...................



       Guitarra 1 y 2 Verso


Ayer la vi estaba sobre su auto nuevo, mirando al cielo.......



E|-----------------------------------------------------|
B|-----------------------------------------------------|
G|------------------5-------9--------7-----------------|
D|---5--------------5x6-----9x6------7x6---------------| X1
A|---5x6------------3-------7--------5-----------------|
E|---3-------------------------------------------------|
PM: .........................................


  Aqui va otra ves el coro......
   y luego B gue con esto.....

                   Guitarra 1, va lento

E|-----------------------------------------------------|
B|-----------------------------------------------------|
G|---------------5-----5-9----------9----7-------------|
D|---5---------5-5-----5-9----------9----7-------------|
A|---5---------5-3-----3-7----------7----5-------------|
E|---3---------3---------------------------------------|


              Guitarra 2


E|-----------------------------------------------------|
B|-----------------------------------------------------|
G|-----------------------------------------------------|
D|---4/5--5-5-5-5-5-5-5| x3-------5--4--0---------------|
A|-----------------------------------------------------|
E|-----------------------------------------------------|

E|E|E|E|E|--------------------------------------------------------------|-||||
                         Aqui va lento

                   Guitarra 1



E|-----------------------------------------------------|
B|-----------------------------------------------------|
G|-----------------------------------------------------|
D|-----5---5------10---10-----14----14-------12----12--| X4
A|----5--5------10--10----------14----14-------12----12|
E|---3----3----8------8-----12----12-------10----10----|


                 Guitarra  2
  La segunda guitarra entra despues de la primera ves
que termina los arpegios

E|-----------------------------------------------------|
B|--------8-7------8-7--------8-7--0------8-7---8/10---|
G|------------7---------5------------------------------|
D|-----------------------------------------------------| X2
A|-----------------------------------------------------|
E|-----------------------------------------------------|


              Guitarra 1 y 2

E|-----------------------------------------------------|
B|-----------------------------------------------------|
G|------------------5-------9--------7-----------------|
D|---5--------------5x6-----9x6------7x6---------------| X2
A|---5x6------------3-------7--------5-----------------|
E|---3-------------------------------------------------|


Se repite el coro 2 veces

E|--------------------------------------------------------------|
Outro



                Guitarra 1

E|-----------------------------------------------------|
B|-----------------------------------------------------|
G|---------------5-----5-9----------9----7-------------|
D|---5---------5-5-----5-9----------9----7-------------|
A|---5---------5-3-----3-7----------7----5-------------|
E|---3---------3---------------------------------------|


                Guitarra 2


E|-----------------------------------------------------|
B|-----------------------------------------------------|
G|-----------------------------------------------------|
D|-----5-4-0------5-4-0--------5-4-0---------5--4------| X1
A|-----------------------------------------------------|
E|-----------------------------------------------------|



Pues me cambio
Todo por un auto nuevo
Dinero y lujos que no pude darle
Maldita sea me cambio
Me cambio

Lo mio era amor y ella
Lo tiro   ooooooooo uooooooo uoooooo   me cambio.....

Ayer la vi
Estaba sobre su auto nuevo
Mirando el cielo
Y dando su reflejo
Al verme de mi se acordo
Se acordo.....

Lo mio era amor y ella
Lo tiro

Nunca me amo
Solo me uso
Era interes
Mas no era amor

Nunca me amo
Solo me uso
Era interes
Mas no era amor

Nunca me amo
Solo me uso
Era interes
Mas no era amor
Composição de Eduardo Nofx
5 exibições
    • ½ Tom
    • Am
    • Bbm
    • Bm
    • Cm
    • C#m
    • Dm
    • Ebm
    • Em
    • Fm
    • F#m
    • Gm
    • G#m
  • Adicionar à lista

    0 comentários

    Ver todos os comentários

    Conseguiu tocar?

    0 Tocaram 0 Ainda não

    Grave um vídeo tocando Me Cambio e nos envie!

    00:00 / 00:00
    Outros vídeos desta música
    Repetir Qualidade Automático
    Outros vídeos desta música
    00:00 / 00:00
    Automático

    Cifra Club Pro

    Aproveite o Cifra Club com benefícios exclusivos e sem anúncios
    Cifra Club Pro
    Aproveite o Cifra Club com benefícios exclusivos e sem anúncios
    OK