Cifra Club

Miedo

Allison

Cifra: Principal (violão e guitarra)
tom: Am
INTRO

                  F                  Am
E|----------------------0--|----------------0--|
B|--------------------1----|--------------1----|
G|-----5--4h5p4------------|-------------------|
D|--3/5---------5-3--3-----|-----5--4-2--2-----|
A|-------------------------|--3/5--5-----------|
E|-------------------------|-------------------|
                F                      Am  G
E|----------------------0--|-------------------|
B|--------------------1----|-------------------|
G|-----5---4---------------|-------------------|
D|--3/5-5-------3--3-------|-----5--4---7--5---|
A|-------------------------|--3/5--5-----------|
E|-------------------------|-------------------|


F
Ya no estoy
                         Am
Seguro donde está tu sol.

F
¿Dónde estoy?
                   Am       G
Nunca eh sabido a donde voy.

  F
Y cada día sin ti, se aleja más el norte.
  Am
Pierdo en mí, buscar el horizonte.
 F                       Am       G
 Debe ser que tú también estas igual.


CORO:

              F
Miedo a naufragar buscándote en mí.
           Am
Toda mi verdad la llevas en ti.
                F
Miedo a no entregarte todo de mí
           Am                 G
Cuando estás aquí, Cuando estás aquí



(SE D PITE EL INTRO)





F
Cielo y mar
              Am
Unidos por casualidad.
F
La verdad
                Am      G
Es que no te puedo dejar.

  F
Cuando estás aquí nos queman las miradas
 Am
Viajo en ti, las dunas de tu cama.
 F                           Am            G
Siento ir corriendo a ti mi alma, sin dudar



CORO:

                F
Miedo a naufragar buscándote en mí.
            Am
Toda mi verdad la llevas en ti.
                F
Miedo a no entregarte todo de mí
           Am                 G
Cuando estás aquí, Cuando estás aquí
  F
¿Dónde estoy?
    Am
¿A dónde voy?
 F
¿Dónde estoy?
             Am     G
La respuesta eres tú x2
Composição de Erik Canales
    • ½ Tom
    • Am
    • Bbm
    • Bm
    • Cm
    • C#m
    • Dm
    • Ebm
    • Em
    • Fm
    • F#m
    • Gm
    • G#m
  • Adicionar à lista

    0 comentários

    Ver todos os comentários

    Conseguiu tocar?

    0 Tocaram 0 Ainda não

    Grave um vídeo tocando Miedo e nos envie!

    00:00 / 00:00
    Outros vídeos desta música
    Repetir Qualidade Automático
    Outros vídeos desta música
    00:00 / 00:00
    Automático

    Cifra Club Pro

    Aproveite o Cifra Club com benefícios exclusivos e sem anúncios
    Cifra Club Pro
    Aproveite o Cifra Club com benefícios exclusivos e sem anúncios
    OK