Cifra Club

Warm Wind

Almah

Cifra: Principal (violão e guitarra)
Selo Cifra Club: esta cifra foi revisada para atender aos critérios oficiais da nossa Equipe de Qualidade.
tom: Cm (forma dos acordes no tom de Am) Capotraste na 3ª casa
[Intro] C  C7M  F7M
        C  C7M  F7M

[Primeira Parte]

Am7               C
All the sweetest words I can say
         Dm7               F7M
Are not enough to describe you
     G
So I say

C             C7M
All I feel is peace, calm and grace
            Dm7               F7M
When you are here just by my side
     G
And I pray
         F7M              G               Am
For your life, for your dreams, for your soul
        D11
You're indeed
F7M       G         C
My purest beautiful love

( C  G )

[Refrão]

[Tab - Refrão]

E|--------------------------------------------------------|
B|---------8----------------------------------------------|
G|--8--10-----7--8--10------------------------------------|
D|--------------------------------------------------------|
A|--------------------------------------------------------|
E|--------------------------------------------------------|

Am   F7M
Warm wind
G              C    C7M
Fills my heart with love
  F7M   F#°   G         G#°
I wish you all the best you can get
Am  F7M      G            C  C7M    F7M
So  live   your life as a  lovely dawn
           G            C
Bright and lighting the stars

[Solo] C  G  F7M
       C  G  F7M 

[Tab - Solo]

E|--------------------------------------------------------|
B|--8------11---------------------------------------------|
G|-----10------7--7--7h8p7\5--3---------------------------|
D|--------------------------------------------------------|
A|--------------------------------------------------------|
E|--------------------------------------------------------|

E|----------------10--11--8-------------------------------|
B|--8------11----------------11---------------------------|
G|-----10------7-----------------8--10--------------------|
D|--------------------------------------------------------|
A|--------------------------------------------------------|
E|--------------------------------------------------------|

[Segunda Parte]

Am                 C
I've been waiting for someone like you
      Dm7             F7M          G
But I didn't think I'd have such a gift
C                     C7M
Dreams come, dreams go and you're always here
             Dm7               F7M
'Cause you're real and part of me
     G
So I pray

         F7M            Em               Am
For your life, for your dreams, for your soul
        D11
You're indeed
F7M       G         C
My purest beautiful love

( C  G )

[Refrão]

E|--------------------------------------------------------|
B|---------8----------------------------------------------|
G|--8--10-----7--8--10------------------------------------|
D|--------------------------------------------------------|
A|--------------------------------------------------------|
E|--------------------------------------------------------|

Am   F7M
Warm wind
G              C    C7M
Fills my heart with love
  F7M   F#°   G         G#°
I wish you all the best you can get
Am  F7M      G            C  C7M    F7M
So  live   your life as a  lovely dawn
           G            Am
Bright and lighting the stars

[Solo] Am  F7M  C 
       Am  F7M  C 
       Am  F7M  C 
       Dm  Em  F7M  G  C

[Tab - Solo]

E|----------10/11\10--------------------------------------|
B|--------------------------------11/13\11----------------|
G|------12------------12----------------------------------|
D|--10------------------------13------------12------------|
A|------------------------11------------------------------|
E|--------------------------------------------------------|

E|--------------------------------------------------------|
B|--------------------------------------------------------|
G|----------12/13\12--------------------------------------|
D|--------------------13----------------------------------|
A|------13----------------13--11--10--11--10--------------|
E|--11----------------------------------------------------|

E|----------10/11\10--------------------------------------|
B|--------------------------------11/13\11----------------|
G|------12------------12----------------------------------|
D|--10------------------------13------------12------------|
A|------------------------11------------------------------|
E|--------------------------------------------------------|

E|--------------------------------------------------------|
B|------------------------11------------------------------|
G|----------12/13\12--------------------------------------|
D|--------------------13----------------------------------|
A|------13------------------------------------------------|
E|--11----------------------------------------------------|

E|----------10/11\10--------------------------------------|
B|--------------------------------11/13\11----------------|
G|------12------------12----------------------------------|
D|--10------------------------13------------12------------|
A|------------------------11------------------------------|
E|--------------------------------------------------------|

E|--------------------------13/15--13/15--13/15-----------|
B|--------------------------------------------------------|
G|------------------12--15--------------------------------|
D|--------------13----------------------------------------|
A|------10--13--------------------------------------------|
E|--11----------------------------------------------------|

E|--------------------------------------------------------|
B|--------------------8--9--11----------------------------|
G|-------------8--10--------------------------------------|
D|---------10---------------------------------------------|
A|--8--11-------------------------------------------------|
E|--------------------------------------------------------|

E|--8--8--10--10--11--11/15--p11--13--13--11--------------|
B|--------------------------------------------------------|
G|--------------------------------------------------------|
D|--------------------------------------------------------|
A|--------------------------------------------------------|
E|--------------------------------------------------------|

[Ponte]

G#                          A#7
All we live together will always be forever
    C#                       G#
You do believe, you've got a friend
D#                           Fm
I know you'll live some hard moments, it's life
C#         C
But never alone

[Refrão]

Am   F7M
Warm wind
G              C    C7M
Fills my heart with love
  F7M   F#°   G         G#°
I wish you all the best you can get
Am  F7M      G            C  C7M    F7M
So  live   your life as a  lovely dawn
           G            F7M
Bright and lighting the stars
        G              F7M
Shining right through my heart
          G         C
You're my beautiful love
Outros vídeos desta música
    12.246 exibições
    • Simplificar cifra
      • ½ Tom
      • Am
      • Bbm
      • Bm
      • Cm
      • C#m
      • Dm
      • Ebm
      • Em
      • Fm
      • F#m
      • Gm
      • G#m
    • Adicionar à lista

    Afinação da cifra

    Afinador online

      0 comentários

      Ver todos os comentários

      Conseguiu tocar?

      11Tocaram0Ainda não

      Grave um vídeo tocando Warm Wind e nos envie!

      Toque também

      1. Imagem do artista AngraRebirth Angra
      2. Imagem do artista ShamanFairy Tale Shaman
      3. Imagem do artista Edu FalaschiPegasus Fantasy - Saint Seya Edu Falaschi
      4. Imagem do artista Andre MatosFairy Tale Andre Matos

      Entre para o Cifra Club PRO

      Tenha acesso a benefícios exclusivos no App e no Site

      • Chega de anúncios

      • Badges exclusivas

      • Mais recursos no app do Afinador

      • Atendimento Prioritário

      • Aumente seu limite de lista

      • Ajude a produzir mais conteúdo

      Cifra Club Pro

      Aproveite o Cifra Club com benefícios exclusivos e sem anúncios
      Cifra Club Pro
      Aproveite o Cifra Club com benefícios exclusivos e sem anúncios
      Ops (: Contenido disponible sólo en portugués.
      OK