Cifra Club

Big Jet Plane

Alok

Cifra: Principal (violão e guitarra)
Tom: Db (forma dos acordes no tom de A) Capotraste na 4ª casa
[Intro] C  Am  Em
        C  Am  Em

E|------------------------------------------|
B|--/12-9-12------------/12-9-12------------|
G|-----------8---9---------------11---9-----|
D|------------------------------------------|
A|------------------------------------------|
E|------------------------------------------|

E|------------------------------------------|
B|--/12-9-12------------/12-9-12------------|
G|-----------8---9---------------11---9-----|
D|------------------------------------------|
A|------------------------------------------|
E|------------------------------------------|

C
  Hello mister
Am                   Em
  Pleased to meet you
C
  I want to hold her
Am                   Em
  I want to kiss her
C
  She smelled of daisies
Am                   Em
  She smelled of daisies
C
  She drives me crazy
Am                   Em
  She drives me crazy

C                       Am                 Em
  Gonna take her for a ride on a big jet plane
C                       Am                 Em
  Gonna take her for a ride on a big jet plane
        C  Am  Em
Hey, hey

E|------------------------------------------|
B|--/12-9-12------------/12-9-12------------|
G|-----------8---9---------------11---9-----|
D|------------------------------------------|
A|------------------------------------------|
E|------------------------------------------|

        C  Am  Em
Hey, hey

E|------------------------------------------|
B|--/12-9-12------------/12-9-12------------|
G|-----------8---9---------------11---9-----|
D|------------------------------------------|
A|------------------------------------------|
E|------------------------------------------|

Hey, hey

C
  Be my lover
Am             Em
  My lady river
C
  Can I take you
Am              Em
  Take ya higher

        C  Am  Em
Hey, hey
Hey, hey

C
  Gonna hold you
Am                    Em
  Gonna kiss you in my arms
C
  Gonna take you
Am           Em
  Away from home

C                       Am                 Em
  Gonna take her for a ride on a big jet plane
C                       Am                 Em
  Gonna take her for a ride on a big jet plane
        C  Am         Em
Hey, hey      hey, hey
        C  Am         Em
Hey, hey      hey, hey
Hey, hey

C                       Am                 Em
  Gonna take her for a ride on a big jet plane
C                       Am                 Em
  Gonna take her for a ride on a big jet plane
Hey, hey

( C  Am  Em )

E|------------------------------------------|
B|--/12-9-12------------/12-9-12------------|
G|-----------8---9---------------11---9-----|
D|------------------------------------------|
A|------------------------------------------|
E|------------------------------------------|

Hey, hey
exibições 29.413
Acordes para:
    Composição: Angus Stone / Julia Stone Colaboração e revisão:
    • Thays Malessa
    • Vitor Zerbeto
    • Luan Ribeiro

    0 comentários

    mostrar mais comentários

    Conseguiu tocar?

    18 tocaram 0 ainda não

    Grave um vídeo tocando Big Jet Plane e mande pra gente!

    00:00 / 00:00
    outros vídeos desta música
    repetir qualidade Automático
    Outros vídeos desta música
    00:00 / 00:00
    Automático
    OK