Cifra Club

Marijuana

Alpha Blondy

Tab de baixo: Principal
exibições 860
Parte 1:
G-----------------------------------------------------------------------|
D---5-3-1---------------------------------------------------------------|
A-3-------1--1-1-3------------------------------------------------------|
E------------------13\1-------------------------------------------------|

Parte 2:
G-----------------------------------------------------------------------|
D-----------------------------------------------------------------------|
A---3---3---1-1-1--1-1-1-1-1--1-1-1-1-1--1---1-3------------------------|
E-3---3---3--------------------------------3----------------------------|

Parte 3:
G-----------------------------------------------------------------------|
D-----------------------------------------------------------------------|
A---3---3---1-1-1---1-1---1-1-1-1-1--1-1-1-1-1--1---1-3-----------------|
E-3---3---3-------3-------------------------------3-------3-6-3---------|

Parte 4:
G-----------------------------------------------------------------------|
D-----------------------------------------------------------------------|
A---3--1-3-1-3---1--1-1----3---------1--1-1---3--1-3-1-3---1------------|
E-3------------3---------3----X-3--3--------3------------3--------------|

Parte 5:
G-----------------------------------------------------------------------|
D------------------------------1-0-1-0-----1-0-1-0-----1-0--------------|
A-1-1----3---------1--1-1---3----------1-3---------1-3-----1--1-3-------|
E------3----X-3--3--------3---------------------------------------------|

Parte 6:
G-----------------------------------------------------------------------|
D------------------------------------------------------------1-----5----|
A---------------------1--1-1---3--1-3-1-3---1--1-1----3--3-3---3-3------|
E-13-11-10-11-13\1--3--------3------------3---------3-------------------|

Parte 7:
G-----------------------------------------------------------------------|
D--------------------------------------1-1---5-5------------------------|
A---1--1-1---3--1-3-1-3---1--1-1----3------3-----3----1--1-1---3--------|
E-3--------3------------3---------3-----------------3--------3----------|

Parte 8:
G-----------------------------------------------------------------------|
D---------------------------1-----5-------------------------------------|
A-1-3-1-3---1--1-1---3--3-3---3-3-----1--1-1---3---1-3-1-3---1--1-1---3-|
E---------3--------3----------------3--------3-------------3--------3---|

Parte 9:
G-----------------------------------------------------------------------|
D-----------------------------------------------------------------------|
A----------3---3---1-1-1--1-1-1-1-1--1-1-1-1-1--1---1-3-----------------|
E-3-6-3--3---3---3--------------------------------3---------------------|

Parte 10:
G-----------------------------------------------------------------------|
D-----------------------------------------------------------------------|
A---3---3---1-1-1---1-1---1-1-1-1-1--1-1-1-1-1--1---1-3-----------------|
E-3---3---3-------3-------------------------------3---------------------|

Parte 11:
G-----------------------------------------------------------------------|
D---5-3-1---------------------------------------------------1-----------|
A-3-------1--1-1-3--1-3--6-6-6-3-5--X-5-6-3-5----1-1--1---1---3---------|
E----------------------------------------------3----------------3-------|

Parte 12 (3x):
G-----------------------------------------------------------------------|
D------------------------------------1----------------------------------|
A-6-6-6-3-5--X-5-6-3-5----1-1--1---1---3--------------------------------|
E-----------------------3----------------3------------------------------|
	
Parte 2:
G-----------------------------------------------------------------------|
D-----------------------------------------------------------------------|
A---3---3---1-1-1--1-1-1-1-1--1-1-1-1-1--1---1-3------------------------|
E-3---3---3--------------------------------3----------------------------|

Parte 3:
G-----------------------------------------------------------------------|
D-----------------------------------------------------------------------|
A---3---3---1-1-1---1-1---1-1-1-1-1--1-1-1-1-1--1---1-3-----------------|
E-3---3---3-------3-------------------------------3-------3-6-3---------|

Parte 13:
G-----------------------------------------------------------------------|
D-----------------------------------------------------------------------|
A---3--1-3-1-3---1--1-1----3---------1----------------------------------|
E-3------------3---------3----X-3--3------------------------------------|

Parte 14:
G-----------------------------------------------------------------------|
D-----------1-0--------1-0--------1-0--------3-1-0-1-3------------------|
A-1-1----3------1-1-3------1-1-3------1-1-3-------------1-1--1-1--3-3---|
E------3----------------------------------------------------------------|
Composição: Alpha Blondy Colaboração e revisão:
  • Presles Santiago

0 comentários

mostrar mais comentários

Conseguiu tocar?

1 tocaram 0 ainda não

Grave um vídeo tocando Marijuana e mande pra gente!

00:00 / 00:00
outros vídeos desta música
repetir qualidade Automático
Outros vídeos desta música
00:00 / 00:00
Automático
OK