Cifra Club

Arrival in Nara

Alt-J

Cifra: Principal (violão e guitarra)
tom: G
[Intro]

(Piano)
E|-------------------------|
B|-10-10-9-9-----7-----7---|
G|------------8-----8------|
D|-------------------------|  (2x)
A|-------------------------|
E|-------------------------|

E|----------------------------------------------------12--|
B|-10-12-------5-0-3-----------10-12-15-12--10-12-----12--|
G|--------7-6---------6-6-6-6---------------------12--12--|
D|--------------------------------------------------------|
A|--------------------------------------------------------|
E|--------------------------------------------------------|

(Violão)
E|----7--7----7--7----7--7----7--7---7--7---7--7---7--7---7--7---|
B|----10-10---10-10---10-10---9--9---7--7---7--7---7--7---7--7---|
G|---------------------------------------------------------------|  (2x)
D|---------------------------------------------------------------|
A|---------------------------------------------------------------|
E|---------------------------------------------------------------|

E|----7--7-----10-10-----14-14-----12-12-----8--8------7--7---------------5--5-----5--5-----5--5-----5--5-|
B|-------------8--8------15-15-----14-14-----10-10-----10-10-----8--8-----5--5-----5--5-----5--5-----5--5-|
G|----9--9-------------------------------------------------------9--9-------------------------------------|
D|--------------------------------------------------------------------------------------------------------|
A|--------------------------------------------------------------------------------------------------------|
E|--------------------------------------------------------------------------------------------------------|

E|----------------------------------7--7-----8--8------7--7---------------5--5-----5--5-----5--5----------|
B|----8--8-----12-12-----8--8-------8--8-----10-10-----10-10-----8--8-----5--5-----5--5-----5--5----------|
G|----9--9-----12-12-----9--9---12+------------------------------9--9-------------------------------------|
D|--------------------------------------------------------------------------------------------------------|
A|--------------------------------------------------------------------------------------------------------|
E|--------------------------------------------------------------------------------------------------------|

E|--------------------7--7----7--7---7--7---7--7---|
B|----1--1----0--0----4--4----4--4----------4--4---|
G|----2--2----0--0-------------------4-------------|
D|--------------------------------------4----------|
A|-------------------------------------------------|
E|-------------------------------------------------|

E|----7--7----7--7----7--7----7--7---7--7---7--7---7--7---7--7---|
B|----10-10---10-10---10-10---9--9---7--7---7--7---7--7---7--7---|
G|---------------------------------------------------------------|
D|---------------------------------------------------------------|
A|---------------------------------------------------------------|
E|---------------------------------------------------------------|

E|----7--7----7--7----7--7----7--7---7--7---7--7---7--7---------7~~~---|
B|----10-10---10-10---10-10---9--9---7--7---7--7---7--7---7~~~--7~~~---|
G|---------------------------------------------------------------------|
D|---------------------------------------------------------------------|
A|---------------------------------------------------------------------|
E|---------------------------------------------------------------------|

[Primeira Parte]
E|-------------------------------------------------------------------------------------|
B|----------12--------------10---------------7---8-----------5-------7-------5---------|
G|------12------12------11------12-------7---------------6-------6-------6-------------|
D|-------------------------------------------------------------------------------------|
A|-------------------------------------------------------------------------------------|
E|--12--------------10---------------7---------------5---------------------------3-2---|
    As she submarines, the rope grips round her feeble feet

E|---------------------------------------------------------------------------------------|
B|-----------12--------------10---------------7--7h8-----------5-------7-------5---------|
G|----11h12------12------11------12-------7----------------6-------6-------6-------------|
D|---------------------------------------------------------------------------------------|
A|---------------------------------------------------------------------------------------|
E|--0----------------10---------------7----------------5---------------------------3-2---|
    Before the dawn breaks on her sorry grasp

E|-------------------------------------------------------------------------------------|
B|----------12--------------10---------------7---8-----------5-------7-------7---------|
G|------12------12------11------12-------7---------------6-------6-------6-------------|
D|-------------------------------------------------------------------------------------|
A|-------------------------------------------------------------------------------------|
E|--0---------------10---------------7---------------5---------------------------3-2---|
    In a blink and in one motion, rope constricts, rips her towards the ocean...

E|---------------------------------------------------------------------------(0)~~~~----|
B|-----------12--------------10---------------7---8-----------5-------7-----------------|
G|----11h12------12------11------12-------7---------------6-------6-------6~~~~---------|
D|--------------------------------------------------------------------------------------|
A|--------------------------------------------------------------------------------------|
E|--0----------------10---------------7---------------5---------------------------------|
    She never finds her bearings, sucking splash in to her lungs....

[Segunda Parte]
E|--------------------------------------------------------------------------0~~~--|
B|------------------------------------------------------------------1-------------|
G|--------------------------------------------------0-----------2-------2---------|
D|--0h2-------------2---------------0-------------------2---3---------------------|
A|------3-------3-------3-------2-------2---3---3---------------------------------|
E|----------5---------------3-----------------------------------------------------|

E|----------0---------------------------------------------|
B|--------------1---------------1-------0-----------------|
G|--2---2-------------------0------------------(0)~~~~~---|
D|--3------------------0h2--------------------------------|
A|------------------3-------------------------------------|
E|----------------------------------3-------3-------------|

E|--------------------------------------------------------------------------------|
B|------------------------------------------------------1-----------1-------1~~~--|
G|--------------------------------------0-----------0-----------2-------2---------|
D|--0h2-------------2---------------0----------0h2----------3---------------------|
A|------3-------3-------3------0h2----------3-------------------------------------|
E|----------5---------------3-----------------------------------------------------|

E|----------------------------------------------------------|
B|---------/5---3-------------1p0-------------------0~~~~~--|
G|------2---------5---------0---------------0---------------|
D|--3------------------0h2--------------0-------0-----------|
A|------------------3---------------------------------------|
E|----------------------------------3-----------------------|

E|-----------------------------------------------------------0-------2-------0~~~~-----|
B|----------12--------------10---------------7---8-----------5---2-------2-------------|
G|------12------12------11------12-------7---------------6-----------------------------|
D|-------------------------------------------------------------------------------------|
A|-------------------------------------------------------------------------------------|
E|--12--------------10---------------7----------------5---------------------------------|

(Terceira Parte)
E|--------------------------------------------------------------------------------|
B|------------------------------------------------1~~~~-----1~~~~-----------------|
G|--0h2-------------2---------------0-------------0~~~~-----0~~~~-----0~~~~-------|
D|------3-------3-------3-------2-------------------------------------0~~~~-------|
A|----------5---------------3---------------------3~~~~-----3~~~~-----------------|
E|--------------------------------------3~~~~-------------------------3~~~~-------|
            Though I cannot see I can hear        her       smile as she sings...

E|------------------------------------------------------------------------------------|
B|----------------------------------------------------1~~~~-----1---------------------|
G|--0h2-------------2---------------0-----------------0~~~~-----0-------0-0~~~~-------|
D|------3-------3-------3-------2-------2---------------------------2-----0~~~~-------|
A|----------5---------------3-------------------------3~~~~-----3---------------------|
E|------------------------------------------3~~~~-------------------------3~~~~-------|
            Though I cannot see I can hear            her       smile as she sings...

[Final]
E|---------------------------------------------------|
B|---------------------------------------------------|
G|---------------------------------------------------|
D|--0h2-------------2---------------0----------------|
A|------3-------3-------3-------2--------------------|
E|----------5---------------3-----------1~~~~~-------|
            Oooooooooooooooooo...

E|-------------------------------------------1~~~~~----|
B|-----------------------------------------------------|
G|-----------------------------------------2~~~~~------|
D|--0h2-------------2---------------0-----3~~~~~-------|
A|------3-------3-------3-------2--------3~~~~~--------|
E|----------5---------------3-----------1~~~~~---------|
            Oooooooooooooooooo...
00:00 / 00:00
Outros vídeos desta música
Repetir
Outros vídeos desta música
Compositor não encontrado.
Colaboração e revisão:
  • Vinicius Lacerda
572 exibições
    • ½ Tom
    • A
    • Bb
    • B
    • C
    • Db
    • D
    • Eb
    • E
    • F
    • F#
    • G
    • Ab
  • Adicionar à lista

    0 comentários

    Ver todos os comentários

    Entre para oCifra Club PRO

    Tenha acesso a benefícios exclusivos no App e no Site

    • Chega de anúncios

    • Prioridade de compra em lançamentos

    • Mais recursos no app do Afinador

    • Atendimento Prioritário

    • Descontos nos produtos Cifra Club

    • Ajude a produzir mais conteúdo

    00:00 / 00:00

    Cifra Club Pro

    Aproveite o Cifra Club com benefícios exclusivos e sem anúncios
    Cifra Club Pro
    Aproveite o Cifra Club com benefícios exclusivos e sem anúncios
    OK