Cifra Club

Left Hand Free

Alt-J

Cifra: Principal (violão e guitarra)
Tom: Cm (forma dos acordes no tom de Bm) Capotraste na 1ª casa
 Afinação D-A-D-G-B-e

Intro/Principal Riff (GTR 1)
E|-------------------------------------|
B|-------------------------------------|
G|---(1)-------------------------------|
D|----2--0-0-0-0-0-0h2---------5---5---|
A|-----------------------1-2-----------|
D|-2-------------------0-----2---2---2-|

Refrão (GTR 2)
E|-----------------------------------------|
B|-5--3----3-5--3--------------------------|
G|-4--2----2-4--2--------------------------|
D|-6--4----4-6--4-------5-5-5-5-5-5-5-5--7-|
A|----------------------5-5-5-5-5-5-5-5--7-|
D|----------------------5-5-5-5-5-5-5-5--7-|

Refrão (GTR 1)
E|-------------------------------------|
B|-------------------------------------|
G|---(1)-------------------------------|
D|----2--0-0-0-0-0-0h2---------5---5---|
A|-----------------------1-2-----------|
D|-2-------------------0-----2---2---2-|

Verso (GTR 2)
E|------------------------------------------------------------------|
B|-5--3----3-5--3----3-5--3----3-5--3----3-5--3----3-5--3----3-5--3-|
G|-4--2----2-4--2----2-4--2----2-4--2----2-4--2----2-4--2----2-4--2-|
D|-6--4----4-6--4----4-6--4----4-6--4----4-6--4----4-6--4----4-6--4-|
A|------------------------------------------------------------------|
D|------------------------------------------------------------------|

Verso (GTR 1)
E|-------------------------------------|
B|-------------------------------------|
G|---(1)-------------------------------|
D|----2--0-0-0-0-0-0h2---------5---5---|
A|-----------------------1-2-----------|
D|-2-------------------0-----2---2---2-|

 Parte mais pesada
E|--------------------|
B|-5--5-5-5-----------|
G|-6--6-6-6--1--1-1-1-|
D|-6--6-6-6--2--2-2-2-|
A|-4--4-4-4--2--2-2-2-|
D|-----------2--2-2-2-| 2x
exibições 8.377
Acordes para:
    Composição: Joe Newman Colaboração e revisão:
    • Jonathan Bruzarrosco

    0 comentários

    mostrar mais comentários

    Conseguiu tocar?

    0 tocaram 0 ainda não

    Grave um vídeo tocando Left Hand Free e mande pra gente!

    00:00 / 00:00
    outros vídeos desta música
    repetir qualidade Automático
    Outros vídeos desta música
    00:00 / 00:00
    Automático
    OK