Cifra Club

Something Good

Alt-J

Cifra: Principal (violão e guitarra)
tom: D
Intro
E|--------------------------------------------------|
B|-----0-----0-----0-----0-----0-----0-----0--------|
G|--------------------------------------------------|
D|--------------------------------------------------|
A|--2-----2-----2-----2-----2-----2-----2-----------|
E|--------------------------------------------------|

E|--2-----------------------------------------------|
B|----3-2-0-----------------------------------------|
G|--------------------------------------------------|
D|--------------------------------------------------|
A|--------------------------------------------------|
E|--------------------------------------------------|

E|--------------------------------------------------|
B|-----0-----0-----0-----0-----0-----0-----0-----0--|
G|--------------------------------------------------|
D|--------------------------------------------------|
A|--------------------------------------------------|
E|--3-----3-----3-----3-----3-----3-----3-----3-----|

E|--------------------------------------------------|
B|-----0-----0-----0-----0-----0-----0-----0--------|
G|--------------------------------------------------|
D|--------------------------------------------------|
A|--2-----2-----2-----2-----2-----2-----2-----------|
E|--------------------------------------------------|

E|--2-----------------------------------------------|
B|----3-2-0-----------------------------------------|
G|--------------------------------------------------|
D|--------------------------------------------------|
A|--------------------------------------------------|
E|--------------------------------------------------|

E|--------------------------------------------------|
B|-----0-----0-----0-----0-----0-----0-----0-----0--|
G|--------------------------------------------------|
D|--------------------------------------------------|
A|--------------------------------------------------|
E|--3-----3-----3-----3-----3-----3-----3-----3-----|

Verse
E|--------------------------------------------------|
B|---0----0---0----0---0----0---0----0--------------|
G|--------------------------------------------------|
D|-2--2-2---0--0-0----------------------------------|
A|----------------------------2--2-2----------------|
E|-------------------3--3-3-------------------------|
"Something Good"

E|--------------------------------------------------|
B|---0----0---0----0---0----0---0----0--------------|
G|--------------------------------------------------|
D|-2--2-2---0--0-0----------------------------------|
A|----------------------------2--2-2----------------|
E|-------------------3--3-3-------------------------|
"Oh, something good"

E|--------------------------------------------------|
B|---0----0---0----0---0----0---0----0--------------|
G|--------------------------------------------------|
D|-2--2-2---0--0-0----------------------------------|
A|----------------------------2--2-2----------------|
E|-------------------3--3-3-------------------------|
"Something Good"

E|--------------------------------------------------|
B|---0----0---0----0---0----0---0----0--------------|
G|--------------------------------------------------|
D|-2--2-2---0--0-0----------------------------------|
A|----------------------------2--2-2----------------|
E|-------------------3--3-3-------------------------|
"Oh, something good tonight will make me forget about you for now"


Bridge
E|--------------------------------------------------|
B|--------------------------------------------------|
G|--------------------------------------------------|
D|--------------------------------------------------|
A|--7-7-7-2-2-2-5-5-5-4-4-4-------------------------|
E|--------------------------------------------------|

E|--------------------------------------------------|
B|--------------------------------------------------|
G|--------------------------------------------------|
D|--------------------------------------------------|
A|--7-7-7-2-2-2-5-5-5-4-4-4-0-----------------------|
E|--------------------------------------------------|


[Refrão]
Em     C  G           Em    C          G
   Get hi-gh, hit the floor before you go

Em      C  G          Em          C        G
   Matador,      estocada, you're my blood sport

Verse
E|--------------------------------------------------|
B|---0----0---0----0---0----0---0----0--------------|
G|--------------------------------------------------|
D|-2--2-2---0--0-0----------------------------------|
A|----------------------------2--2-2----------------|
E|-------------------3--3-3-------------------------|
"But something good"

E|--------------------------------------------------|
B|---0----0---0----0---0----0---0----0--------------|
G|--------------------------------------------------|
D|-2--2-2---0--0-0----------------------------------|
A|----------------------------2--2-2----------------|
E|-------------------3--3-3-------------------------|
"Oh, something good"

E|--------------------------------------------------|
B|---0----0---0----0---0----0---0----0--------------|
G|--------------------------------------------------|
D|-2--2-2---0--0-0----------------------------------|
A|----------------------------2--2-2----------------|
E|-------------------3--3-3-------------------------|
"Something Good"

E|--------------------------------------------------|
B|---0----0---0----0---0----0---0----0--------------|
G|--------------------------------------------------|
D|-2--2-2---0--0-0----------------------------------|
A|----------------------------2--2-2----------------|
E|-------------------3--3-3-------------------------|
"Oh, something good tonight will make me forget about you for now"


Bridge
E|--------------------------------------------------|
B|--------------------------------------------------|
G|--------------------------------------------------|
D|--------------------------------------------------|
A|--7-7-7-2-2-2-5-5-5-4-4-4-------------------------|
E|--------------------------------------------------|

E|--------------------------------------------------|
B|--------------------------------------------------|
G|--------------------------------------------------|
D|--------------------------------------------------|
A|--7-7-7-2-2-2-5-5-5-4-4-4-0-----------------------|
E|--------------------------------------------------|


[Refrão]
Em         C          G                    Em           C                    
   Forty-eight thousand seats,  bleats and roars for my memories of
G
You

Em    C         G                  Em        C            G
  Now that I'm fully clean the matador is no more and is dragged from view


Solo
E|--------------------------------------------------|
B|--------------------------------------------------|
G|--------------------------------------------------|
D|--------------------------------------------------|
A|--7-7-7-2-2-2-5-5-5-4-4-4-------------------------| x8
E|--------------------------------------------------|

E|--------------------------------------------------|
B|-------7-8----------------------------------------|
G|--------------------------------------------------|
D|--------------------------------------------------|
A|--------------------------------------------------| x8
E|-0h7----------------------------------------------|


[Refrão]
Em     C  G           Em    C          G
   Get hi-gh, hit the floor before you go

Em      C  G          Em          C        G
   Matador,      estocada, you're my blood sport

Em         C          G                    Em           C                    
   Forty-eight thousand seats,  bleats and roars for my memories of
G
You

Em    C         G                  Em        C            G
  Now that I'm fully clean the matador is no more and is dragged from view



Verse
E|--------------------------------------------------|
B|---0----0---0----0---0----0---0----0--------------|
G|--------------------------------------------------|
D|-2--2-2---0--0-0----------------------------------|
A|----------------------------2--2-2----------------|
E|-------------------3--3-3-------------------------|
"But something good"

E|--------------------------------------------------|
B|---0----0---0----0---0----0---0----0--------------|
G|--------------------------------------------------|
D|-2--2-2---0--0-0----------------------------------|
A|----------------------------2--2-2----------------|
E|-------------------3--3-3-------------------------|
"Oh, something good"

E|--------------------------------------------------|
B|---0----0---0----0---0----0---0----0--------------|
G|--------------------------------------------------|
D|-2--2-2---0--0-0----------------------------------|
A|----------------------------2--2-2----------------|
E|-------------------3--3-3-------------------------|
"Something Good"

E|--------------------------------------------------|
B|--------------------------------------------------|
G|--------------------------------------------------|
D|-2--------0---------------------------------------|
A|----------------------------2---------------------|
E|-------------------3-----------------0------------|
00:00 / 00:00
Outros vídeos desta música
Repetir
Outros vídeos desta música
Compositor não encontrado.
Colaboração e revisão:
  • PedroGustavo 2202
  • Fabricio Galvao
9.426 exibições
    • ½ Tom
    • A
    • Bb
    • B
    • C
    • Db
    • D
    • Eb
    • E
    • F
    • F#
    • G
    • Ab
  • Adicionar à lista

    0 comentários

    Ver todos os comentários

    Entre para oCifra Club PRO

    Tenha acesso a benefícios exclusivos no App e no Site

    • Chega de anúncios

    • Prioridade de compra em lançamentos

    • Mais recursos no app do Afinador

    • Atendimento Prioritário

    • Descontos nos produtos Cifra Club

    • Ajude a produzir mais conteúdo

    00:00 / 00:00

    Cifra Club Pro

    Aproveite o Cifra Club com benefícios exclusivos e sem anúncios
    Cifra Club Pro
    Aproveite o Cifra Club com benefícios exclusivos e sem anúncios
    OK