Cifra Club

Aprenda

Blackbird

Alter Bridge

Cifra: Principal (violão e guitarra)
Tom: C (forma dos acordes no tom de C#) Afinação: Eb Ab Db Gb Bb Eb
Afinação meio tom abaixo

    Introdução - Dedilhado -  Clean
E|---------------------|------------0--------|-------------------|------------------|
B|------3---------3----|------3-------3------|-------------------|-----------------o|
G|--3-----3---2-----0--|--2-----2-------2----|---2---3----3-2----|-------0------0---|
D|---------------------|------------------0--|---------0-------0-|-----0------0-----|
B|---------------------|---------------------|-------------------|--8------8-------o|
E|--3-3-----3-3-3-----0|--2-2-----2---------2|-1-1-1-----1-------|----6------5------|

                                                                 Variação nessa parte
E|---------------------|------------0--------|-------------------|------------------|
B|------3---------3----|------3-------3------|-------------------|-----------------o|
G|--3-----3---2-----0--|--2-----2-------2----|---2---3----3-2----|-------0------0---|
D|---------------------|------------------0--|---------0-------0-|-----0------7-----|
A|---------------------|---------------------|-------------------|--8------8-------o|
E|--3-3-----3-3-3-----0|--2-2-----2---------2|-1---1-----1-------|----6------5------|


E|---------------------|------------0--------|-------------------|------------------|
B|------3---------3----|------3-------3------|-------------------|-----------------o|
G|--3-----3---2-----0--|--2-----2-------2----|---2---3----3-2----|-------0------0---|
D|---------------------|------------------0--|---------0-------0-|-----0------0-----|
B|---------------------|---------------------|-------------------|--8------8-------o|
E|--3-3-----3-3-3-----0|--2-2-----2---------2|-1---1-----1-------|----6------5------|

                                                                    Outra variação
E|---------------------|------------0--------|-------------------|------------------|
B|------3---------3----|------3-------3------|-------------------|-----------------o|
G|--3-----3---2-----0--|--2-----2-------2----|---2---3----3-2----|-------0----------|
D|---------------------|------------------0--|---------0-------0-|-----0---------0--|
B|---------------------|---------------------|-------------------|--8------3---3---o|
E|--3-3-----3-3-3-----0|--2-2-----2---------2|-1-1-1-----1-------|----6------1------|


 Riff com Distorção 2x
E|---------------|-------------|-------------|-------------------|
B|---------------|-------------|-------------|------------------o|
G|---------------|-------------|-------------|-------------------|
D|---------------|-------------|-------------|--8-8-8--7-7-7-----|
A|---------------|-------------|-------------|--8-8-8--8-8-8----o|
E|--3~~---5b6r5--|-2~~--5b6r5--|-1~~--5b6r5--|--6-6-6--5-5-5-----|

  Refrão
E|------------|----------|-----------|-----------|------------|-----------|
B|------------|----------|-----------|-----------|------------|-----------|
G|--8---------|-7--------|-----------|--0--------|--8---------|--7--------|
D|--8---------|-7--------|--3--------|--2--------|--8---------|--7--------|
A|--6---------|-5--------|--3--------|--3--------|--6---------|--5--------|
E|--6---------|-5--------|--1--------|--0--------|--6---------|--5--------|



Toque novamente o dedilhado da intro



  Refrão - Variação
E|------------|----------|-----------|-----------|------------|-----------|---------------|-----------------|
B|------------|----------|-----------|-----------|------------|-----------|---------------|-----------------|
G|--8---------|-7--------|-----------|--0--------|--8---------|--7--------|---------------|-----------------|
D|--8---------|-8--------|--3--------|--2--------|--8---------|--7--------|--5--5---7--7--|--8--8---10--10--|
A|--6---------|-5--------|--3--------|--3--------|--6---------|--5--------|---------------|-----------------|
E|--6---------|----------|--1--------|--0--------|--6---------|--5--------|--3--3---5--5--|--6--6---8---8---|

E|------------|----------|-----------|-----------|------------|-----------|
B|------------|----------|-----------|-----------|------------|-----------|
G|--8---------|-7--------|-----------|--0--------|--8---------|--7--------|
D|--8---------|-8--------|--3--------|--2--------|--8---------|--8--------|
A|--6---------|-5--------|--3--------|--3--------|--6---------|--5--------|
E|--6---------|----------|--1--------|--0--------|--6---------|-----------|

E|------------|---------------|-----------|------------------|-----------|
B|------------|---------------|-----------|------------------|-----------|
G|-7----------|--8-7---8-7-5--|-7---------|--7-8-11-12--11-8-|--7--------|
D|-7----------|--8-7---8-7-5--|-7---------|--7-8-11-12--11-8-|--7--------|
A|-5----------|--6-5---6-5-3--|-5---------|--5-6-9--10--9--6-|--5--------|
E|-5----------|--6-5---6-5-3--|-5---------|--5-6-9--10--9--6-|--5--------|

E|---------------|-----------|----------------|-------------|--------|
B|---------------|-----------|----------------|-------------|--------|
G|--8-7---8-7-5--|--7--------|----------------|-------------|--------|
D|--8-7---8-7-5--|--7--------|------4-8-7-/10-|-------------|--------|
A|--6-5---6-5-3--|--5--------|--5-6-----------|-{10~~----5--|--8~}---|
E|--6-5---6-5-3--|--5--------|----------------|--3----------|--------|




Clean - Interlude 16x (Myles Kennedy)
E|-----------------15----------13p15--|--15------|Toque essa nota na 16º vez e deixe soar
B|--------15----15-------15----------o|----------|
G|--12-12----12-------12----12--------|----------|
D|------------------------------------|----------|
A|-----------------------------------o|----------|
E|------------------------------------|----------|


Clean (Mark Tremonti)
E|--------------------|--------------------|---------------------|-------------------|
B|--------------------|--------------------|---------------------|----------/6-------|
G|------5---7-5---5h7-|------5---8-7---5h7-|------5---7--5---5h7-|------5------8p7p5-|
D|--5-5---5-----5-----|--5-5---5-----5-----|--5-5---5------5-----|--5-5---5----------|
A|--------------------|--------------------|---------------------|-------------------|
E|--------------------|--------------------|---------------------|-------------------|

E|---------------------|------------------|--------------------|----------------|
B|---------------------|------------------|--------------------|----------------|
G|-------3---3p2--2h3--|------5---5-3p2p0-|------5---7-5---5h7-|------5---5/7~--|
D|---5-5---5-----5-----|--5-5---5---------|--5-5---5-----5-----|--5-5---5-------|
A|---------------------|------------------|--------------------|----------------|
E|---------------------|------------------|--------------------|----------------|


Clean 2 - Mark Tremonti (Parte que o Myles canta)
E|-------------------|------------------|--------------------------------|
B|-------------------|------------------|--------------------------------|
G|-------3----3p2-0--|--2---3p2-0-----0-|-------8---8h7-5---7---7---7---7|
D|-------------------|------------------|--------------------------------|
A|-------------------|------------------|--6--6---6-------6---6---6---6--|
E|---3-3----3--------|3---3--------3----|--------------------------------|

E|-------------------|----------------|-----------------|---------------------|
B|-------------------|----------------|-----------------|---------------------|
G|-------------------|---------------5|------3-------3--|-----0---2---2b3r2-0-|
D|-----8---8p7-5-----|---4---5---5p4--|--0-------0------|--0------------------|
A|-------------------|----------------|-----------------|---------------------|
E|-6-6---6-----------|-5---5---5------|3-------3--------|3------3---3---------|

E|-------------------|------------------|--------------------------------|
B|-------------------|------------------|-------------------6------------|
G|-------3----3p2-0--|--2---3p2-0-----0-|-------8---8h7-5-------8---7h8-7|
D|-------------------|------------------|--------------------------------|
A|-------------------|------------------|--6--6---6-------6---6---6------|
E|---3-3----3--------|3---3--------3----|--------------------------------|

E|-------------------|----------------|-----------------------------|
B|-------------------|----------------|-----------------------------|
G|-------------------|---------------5|-----0-------0------0-----0--|
D|-----8---8p7-5-----|---4---5---5p4--|---0------0------0------0----|
A|-------------------|----------------|-----------------------------|
E|-6-6---6-----------|-5---5---5------|-3------3------3------3------|

Esse dedilhado também é usado como base na hora do solo



Solo 1 w/ Warm Dist. (Myles Kennedy)    prebend
E|-----------|--------|----------------|--------|-----------------|
B|-----------|--------|----------------|--------|-----------------|
G|--x------5-|--------|-----------3-5--|-b8r5b8-|----------3--5p3-|
D|--x-----x--|--5~~~--|--(5)~~--5------|--------|--------5--------|
A|-----------|--------|----------------|--------|--6~-------------|
E|----12\----|--------|----------------|--------|-----------------|
                Hold bend                                     {play 3x}
E|---------3-|---------------|----------------|----------------------------|
B|-----------|---------------|----------------|-15-------------------------|
G|---5b7~----|-(7)r5-5-3-5b7-|-(7)r5-3--------|-15-------------------------|
D|-----------|---------------|---------5~-/17-|----17-15-17-15-------------|
A|-----------|---------------|----------------|---------------{pb16r15-13}-|
E|-----------|---------------|----------------|----------------------------|

E|----------------------|-------------------|------|-----------15--17--18-17-|
B|----------------------|-----15---15-------|--16~~|-(16~)--/18--18----------|
G|----------------------|-------------17-15-|------|-------------------------|
D|---------17-15--15-17-|-/17---17----------|------|-------------------------|
A|-----17---------------|-------------------|------|-------------------------|
E|--15~--15-------------|-------------------|------|-------------------------|

E|--18b20~~-15---|--18b20~~-15---|--15~-17~-|--18--20-20-20b22r20-|--18~~
B|------------18-|------------17-|----------|---------------------|------
G|---------------|---------------|----------|---------------------|------
D|---------------|---------------|----------|---------------------|------
A|---------------|---------------|----------|---------------------|------
E|---------------|---------------|----------|---------------------|------


  Solo 2 (Mark Tremonti) - Começa logo quando é tocada a ultima nota do Solo 1
E|--15-17-|-18~~--17b18r17-15------|--17~~--15h17p15-15------15~-|-*14-------------------|
B|--------|------------------18-15-|-------------------18-15-15~-|-------15-b16r15b16r15-|
G|--------|------------------------|-----------------------------|-----17----------------|
D|--------|------------------------|-----------------------------|-----------------------|
A|--------|------------------------|-----------------------------|-----------------------|
E|--------|------------------------|-----------------------------|-----------------------|

E|---------------------------15-|-15--18-15---------------------------|
B|---------------------------15-|----------15-18b20-18-15-18-15-------|
G|-------------------------15---|------------------------------17-15--|
D|------------------------------|-------------------------------------|
A|--b16r15-13--15--13-15--------|-------------------------------------|
E|-----------15--15-------------|-------------------------------------|

                   w/ wah______________________________________________________
E|-------------------------------------------------------|-----------------------|
B|--18-15----15------------------------------------------|-----------------------|
G|--------15----17---------------------------------------|-----------------------|
D|-----------------17-T20-p17-p15-p13--------------------|-----------------------|
A|------------------------------------18-T20-p18-p15-p13-|-*13-15-13-15-12-13-12-|
E|-------------------------------------------------------|-----------------------|

E|------------15-------|-------------------|-------------|--------17----x\-|
B|------------15-------|-/18--18-20-18~~---|-(18~)-------|-/18-18---18~-x\-|
G|--15-17-15-----14-15-|-------------------|-------14-15-|-----------------|
D|---------------------|-------------------|-------------|-----------------|
A|---------------------|-------------------|-------------|-----------------|
E|---------------------|-------------------|-------------|-----------------|

                               Play 4x                                    TP
E|-------18-----18--------|-{b20r18-------|--20b22-18b20------20b22-20b22-15-|
B|--18b20--18b20---18b20~-|--------20-18}-|-------------20-18----------------|
G|------------------------|---------------|----------------------------------|
D|------------------------|---------------|----------------------------------|
A|------------------------|---------------|----------------------------------|
E|------------------------|---------------|----------------------------------|

     Play 2x
E|-{20-15-18-15-17-15-18-15}-|-15-h17-h18-p17-p15-h17-h18-p17-p15---
B|---------------------------|--------------------------------------
G|---------------------------|--------------------------------------
D|---------------------------|--------------------------------------
A|---------------------------|--------------------------------------
E|---------------------------|--------------------------------------

E|-----------------------------------|-------
B|--16-18-16-15-------------15-16-18-|-------
G|-------------17~-16-17-16----------|-------
D|-----------------------------------|-/17~~-
A|-----------------------------------|-------
E|-----------------------------------|-------

  Refrão - Variação 2
E|------------|----------|-----------|-----------|------------|-----------|---------------|-----------------|
B|------------|----------|-----------|-----------|------------|-----------|---------------|-----------------|
G|--8---------|-7--------|-----------|--0--------|--8---------|--7--------|---------------|-----------------|
D|--8---------|-8--------|--3--------|--2--------|--8---------|--7--------|--5--5---7--7--|--8--8---10--10--|
A|--6---------|-5--------|--3--------|--3--------|--6---------|--5--------|---------------|-----------------|
E|--6---------|----------|--1--------|--0--------|--6---------|--5--------|--3--3---5--5--|--6--6---8---8---|

E|------------|----------|-----------|-----------|------------|-----------|
B|------------|----------|-----------|-----------|------------|-----------|
G|--8---------|-7--------|-----------|--0--------|--8---------|--7--------|
D|--8---------|-8--------|--3--------|--2--------|--8---------|--8--------|
A|--6---------|-5--------|--3--------|--3--------|--6---------|--5--------|
E|--6---------|----------|--1--------|--0--------|--6---------|-----------|



- Depois toque o riff com distorção 4x, com o Interlude depois da 2ª que o riff com distorção for tocado

- Depois toque o dedilhado inicial 4x

Solo final (Myles Kennedy) enquanto o dedilhado da introdução é tocado
E|------|----------|-------|----------|------------|-------|-------|-------|-------|---|
B|------|----------|-------|----------|------------|--9----|-------|-------|-------|---|
G|--5~~-|--(5~)tb--|--8~~--|--(8~)tb--|--10~~-8h10-|-------|---3-5-|-5b6r5-|-5b6r5-|---|
D|------|----------|-------|----------|------------|-------|-------|-------|-------|-5-|
A|------|----------|-------|----------|------------|-------|-------|-------|-------|---|
E|------|----------|-------|----------|------------|-------|-------|-------|-------|---|

Key:

| /  slide up
| \  slide down
| PM palm mute
| PH pinch harmonic
| h  hammer-on
| p  pull-off
| ~  vibrato
| *  harmonic
| x  Mute note (or rake)
| b  bend (bends with vibrato bar indicated)
| r  release bend
| TP tremelo pick
====================================================
Composição de Myles Kennedy
Colaboração e revisão:
  • Lucas Nascimento
  • Alb J
40.002 exibições
    • ½ Tom
    • A
    • Bb
    • B
    • C
    • Db
    • D
    • Eb
    • E
    • F
    • F#
    • G
    • Ab
  • Adicionar à lista

    0 comentários

    Mostrar mais comentários

    Conseguiu tocar?

    13 Tocaram 1 Ainda não

    Grave um vídeo tocando Blackbird e mande pra gente!

    00:00 / 00:00
    outros vídeos desta música
    repetir qualidade Automático
    Outros vídeos desta música
    00:00 / 00:00
    Automático

    Cifra Club Pro

    Aproveite o Cifra Club com benefícios exclusivos e sem anúncios
    7 dias grátis
    Cifra Club Pro
    Aproveite o Cifra Club com benefícios exclusivos e sem anúncios
    7 dias grátis
    OK