Cifra Club

Aprenda

Brand New Start

Alter Bridge

Cifra: Principal (violão e guitarra)
Tom: C (forma dos acordes no tom de C#) Afinação: Eb Ab Db Gb Bb Eb
Intro 2x: Ebm7  Cm7(b5)  F#  C#/F  Ebm9

E|-------------------------------------------------------0---------|
B|-----------------------------------------------------------0-----|
G|---------------0-------------------------------0-------------0---|
D|---------12------------------------------12--------12----------0-|
A|-----10----10------------------------10----10--------------------|
E|-0-----0-----0---------------0-10-9----9-----9-------9-----------|

Gtr1

E|-----------------------------------------------------------0-----|
B|-------------------------------------------------------------0---|
G|-----------------------------------------------0---------------0-|
D|---------------0---------------0---------4p0-------4-------------|
A|-----0---3p2---------0---3p2---------2---------------5-----------|
E|-3-----3-----3---2-----2-----2---0-----0-----0-----------0-------|

Ebm7
against the sky
Cm7(b5)
streams of light
F#         C#/F     Ebm9
call out to me and you
Ebm7
we leave as one
Cm7(b5)
we've just begun
F#          C#/F         Ebm9
to find the solace we're due
F#        C#/F           Ebm9
this is a life we must choose

        B5/F#             F#5
we will make a brand new start
         C#5/G#       G#5
from the pieces torn apart
             F#5    B5/F# Ebm9
the break of day is before us
          B5/F#           F#5
cast your sorrows to the wind
         C#/G#          G#5
let the highway take us in
Eb/G    F#5      B5/F# Ebm9
as we escape the disorder

Ebm7
this desert road
Cm7(b5)
that we call home
F#          C#/F  Ebm9
this is our destiny
Ebm7                  Cm7(b5)
we chase the setting sun
as we outrun
F#     C#/F  Ebm9
a life of agony
F#         C#/F        Ebm9
god how we ache to be free

        B5/F#             F#5
we will make a brand new start
         C#5/G#       G#5
from the pieces torn apart
             F#5    B5/F# Ebm9
the break of day is before us
          B5/F#           F#5
cast your sorrows to the wind
         C#/G#          G#5
let the highway take us in
Eb/G    F#5      B5/F# Ebm9
as we escape the disorder

Solo: Ebm9  G#/C  F#5  C#/F  Eb5
      Eb5  G#9/C  F#5  C#/F  Ebm
      Eb5  G#9/C  F#5  C#/F  Ebm  C#5/G#
      Eb5  G#9/C  F#5  C#/F  Ebm  C#5/G#

        B5/F#             F#5
we will make a brand new start
         C#5/G#       G#5
from the pieces torn apart
             F#5     B/F# Ebm9
the break of day is before us
          B5/F#           F#5
cast your sorrows to the wind
         C#/G#          G#5
let the highway take us in
Eb/G    F#5      B/F# Ebm9
as we escape the disorder

               B/F#  F#5
we'll make our way
               C#5/G#  G#5
we'll make our way
               B/F#  F#5
we'll make our way
               C#5/G#  G#5
we'll make our way

End: B/F#  F#5  C#5/G#  G#5
     F#5  B/F#  Ebm9  F#5  B/F#  Ebm
     Ebm7  Cm7(b5)  F#  C#/F  Ebm9
Composição de Mark Tremonti / Myles Kennedy
Colaboração e revisão:
  • Matheus
  • guilherme
  • Eduardo Garcia
16.039 exibições
    • ½ Tom
    • A
    • Bb
    • B
    • C
    • Db
    • D
    • Eb
    • E
    • F
    • F#
    • G
    • Ab
  • Adicionar à lista

    0 comentários

    Mostrar mais comentários

    Conseguiu tocar?

    5 Tocaram 0 Ainda não

    Grave um vídeo tocando Brand New Start e mande pra gente!

    00:00 / 00:00
    outros vídeos desta música
    repetir qualidade Automático
    Outros vídeos desta música
    00:00 / 00:00
    Automático

    Cifra Club Pro

    Aproveite o Cifra Club com benefícios exclusivos e sem anúncios
    Cifra Club Pro
    Aproveite o Cifra Club com benefícios exclusivos e sem anúncios
    OK