Cifra Club

Aprenda

Bullseye Solo

Aly & AJ

Cifra: Principal (violão e guitarra)
tom: G
Hey this is my first tab im sure its 100% accurate. Its just the solos

Hey everyone this is my first mini tab im sure its right they are both solos on the 

1st Solo After 1st Chorus

e|-17-19-17-15----15-------------------------------|
B|-------------17----17-15-13-15-13----------------|
G|----------------------------------14-12-14-12----|
D|----------------------------------------------14-|
A|-------------------------------------------------|
E|-------------------------------------------------|

e|-17-19-17-15----15---------------------------------------|
B|-------------17----17-15---------------------------------|
G|-------------------------14-14-14-14-14-14---14-14-14-14-|
D|---------------------------------------------------------|
A|---------------------------------------------------------|
E|---------------------------------------------------------|


2nd Solo After 2nd chorus ( i kno the notes are 100% but there are prob some slides but 
is from what i heard)

e|------------------------------------------------------------------------------|
B|-12-12-12-9-12-12-9-12-9-12-15-12-9-7-----------------------------------------|
G|--------------------------------------12-12/14--12/14--12/14-14b-12-----------|
D|-------------------------------------------------------------------14-12-9----|
A|---------------------------------------------------------------------------12-|
E|------------------------------------------------------------------------------|

e|--------------------------------------------------------------------------|
B|--------------------------------------------------------------------------|
G|---------------12---12-14-14-12-14/17-12-14-14-12-14/17-12-14-14-12-14/17-|
D|-------9-12-14---14-------------------------------------------------------|
A|-12-12--------------------------------------------------------------------|
E|--------------------------------------------------------------------------|
Compositor não encontrado.
657 exibições
    • ½ Tom
    • A
    • Bb
    • B
    • C
    • Db
    • D
    • Eb
    • E
    • F
    • F#
    • G
    • Ab
  • Adicionar à lista

    0 comentários

    Ver todos os comentários

    Conseguiu tocar?

    0 Tocaram 0 Ainda não

    Grave um vídeo tocando Bullseye Solo e nos envie!

    00:00 / 00:00
    Outros vídeos desta música
    Repetir Qualidade Automático
    Outros vídeos desta música
    00:00 / 00:00
    Automático

    Cifra Club Pro

    Aproveite o Cifra Club com benefícios exclusivos e sem anúncios
    Cifra Club Pro
    Aproveite o Cifra Club com benefícios exclusivos e sem anúncios
    OK