Cifra Club

Right To Write Me Off

Amber Pacific

Cifra: Principal (violão e guitarra)
tom: B
The Right to Right Me Off
Tabbed by: I-Z
Email:*

Tuning: Drop D

This is pretty easy just listen to the song to get the timing and chord changes and you
get it. And the chorus I just tabbed out 1 guitar as you can see


INTRO-ok I got the very beginning as good as I could these are probably not the right 
but they sound pretty close…………to me anyways

  “Can we make…………with every word……distant……and I feel……………let you know
e|------------------------------------------------------------------------|
B|------------------------------------------------------------------------|
G|--------4------------------8-----6--------------7----------------3------|
D|--------x------------------x-----x--------------x----------------x------|
A|--------2------------------6-----4--------------5----------------1------|
D|------------------------------------------------------------------------|

e|------------------------------------------------------------------------|
B|------------------------------------------------------------------------|
G|---15--14-12------10----------------------------------------------------|
D|----x--x--x--------x---x2-----------------------------------------------|
A|---13--12—10-------8----------------------------------------------------|
D|------------------------------------------------------------------------|

VERSE 1
Guitar 1
e|------------------------------------------------------------------------|
B|------------------------------------------------------------------------|
G|-333--33------555--55---------------------------------------------------|
D|-xxx--xx-x3---xxx--xx---------------------------------------------------|
A|-111--11------333--33---------------------------------------------------|
D|------------------------------------------------------------------------|
   **   **      **   **

both guitars come in after he says
"or make you feel this way"
guitar 2
e|------------------------------------------------------------------------|
B|------6-----------------------------------------------------------------|
G|--3-5---5---------------------------------------------------------------|
D|-------------repeat as many times needed--------------------------------|
A|------------------------------------------------------------------------|
D|------------------------------------------------------------------------|

Guitar 1 in playing this while guitar 2 in doing that

e|--------------------------|
B|--------------------------|until he says-“I never felt this day this day would 
play
G|-333-----------------555--|
D|-333—----------------555--|
A|-111-----------------333--|
D|--------------------------|
   **                  **

CHORUS
e|------------------------------------------------------------------------|
B|------------------------------------------------------------------------|
G|--10--8--7--3------------------------------------------15---------------|
D|--x---x--x--x—x2---------------------------------------X----------------|
A|--8---6--5--1------------------------------------------13---------------|
D|------------------------------------------------------------------------|

VERSE 2
Guitar 1
e|------------------------------------------------------------------------|
B|------------------------------------------------------------------------|
G|-333--33----------------------------------------------------------------|
D|-xxx--xx-x2-------------------------------------------------------------|
A|-111--11----------------------------------------------------------------|
D|------------------------------------------------------------------------|
   **   **

both guitars come in after he says
"or make you feel this way"
guitar 2
e|------------------------------------------------------------------------|
B|------6-----------------------------------------------------------------|
G|--3-5---5---------------------------------------------------------------|
D|-------------repeat as many times needed--------------------------------|
A|------------------------------------------------------------------------|
D|------------------------------------------------------------------------|


Guitar 1 in does the same thing as last time
You should be able to figure out when to come in this time

e|------------------------------------------------------------------------|
B|------------------------------------------------------------------------|
G|-333-----------------555------------------------------------------------|
D|-333—----------------555--------------- --------------------------------|
A|-111-----------------333------------------------------------------------|
D|------------------------------------------------------------------------|
   **                  **

CHORUS
e|------------------------------------------------------------------------|
B|------------------------------------------------------------------------|
G|--10--8--7--3-----------------------------------------------------------|
D|--x---x--x--x—x2--------------------------------------------------------|
A|--8---6--5--1-----------------------------------------------------------|
D|------------------------------------------------------------------------|

Bridge
Guitar 1
e|------------------------------------------------------------------------|
B|------6-------6-------6-------6-----------------------------------------|
G|--3-5---5-3-5---5-3-5---5-3-5---5---------------------------------------|
D|-----------------------------------repeat as many times needed----------|
A|------------------------------------------------------------------------|
D|------------------------------------------------------------------------|

Guitar 2
There is a couple bass chords that you might think are the guitar so listen to find out
                              Those are ones
e|-------|------------|---------------------------------------------------|
B|-------|------------|---------------------------------------------------|
G|-3---5-|--3----5----|---33------77--3-----------------------------------|
D|-3---5-|--3----5—x4-|---33--11--xx--3-----------------------------------|
A|-1---3-|--1----3----|---11--11--55--1-----------------------------------|
D|-------|------------|-------11------------------------------------------|
            *    *

CHORUS                   end with this
e|------------------------------------------------------------------------|
B|------------------------------------------------------------------------|
G|--10--8--7--3-----------33----------------------------------------------|
D|--x---x--x--x—x3--------33----------------------------------------------|
A|--8---6--5--1-----------11----------------------------------------------|
D|------------------------------------------------------------------------|

| /  slide up
| \  slide down
| h  hammer-on
| p  pull-off
| ~  vibrato
| +  harmonic
| * Mute note
00:00 / 00:00
Outros vídeos desta música
Repetir
Outros vídeos desta música
Composição de Will Nutter
765 exibições
    • ½ Tom
    • A
    • Bb
    • B
    • C
    • Db
    • D
    • Eb
    • E
    • F
    • F#
    • G
    • Ab
  • Adicionar à lista

    0 comentários

    Ver todos os comentários

    Entre para oCifra Club PRO

    Tenha acesso a benefícios exclusivos no App e no Site

    • Chega de anúncios

    • Prioridade de compra em lançamentos

    • Mais recursos no app do Afinador

    • Atendimento Prioritário

    • Descontos nos produtos Cifra Club

    • Ajude a produzir mais conteúdo

    00:00 / 00:00

    Cifra Club Pro

    Aproveite o Cifra Club com benefícios exclusivos e sem anúncios
    Cifra Club Pro
    Aproveite o Cifra Club com benefícios exclusivos e sem anúncios
    OK