Cifra Club

Fumar el Amor

Amen

Cifra: Principal (violão e guitarra)
Selo Cifra Club: esta cifra foi revisada para atender aos critérios oficiais da nossa Equipe de Qualidade.
tom: E
INTRO
=====


e||-------------------------------------------------------|
B||-------------------------------------------------------|
G||-----------10b12-10-8-10-8h10p8-------8--10b12r10p8-8--|
D||--10--10--------------------------10-------------------|
A||--10--10-----------------------------------------------|
E||--8---8------------------------------------------------|
E|-PM-|

e||----------------------------------------------------------------------|
B||----------------------------------------------------------------------|
G||----------------------------------------------------------------------|
D||--10--10---8------8------8------8------8b9------8------8b9------------|
A||--10--10-----9h10---9h10---9h10---9h10-----9h10---9h10----------------|
E||--8---8-----------------------------------------------------11b12--8--|
E|--------------------PM-------------------|

e||-------------------------------------------------8------------------------|
B||---------------------------------8-----------------11p10p8----------------|
G||---------10-----10h11p10p8h10h11---11p10p8h10h11-----------11p10p8h10h11--|
D||--10-10-------------------------------------------------------------------|
A||--10-10-------------------------------------------------------------------|
E||--8--8--------------------------------------------------------------------|
E|-PM| :F-|

e||--8--------------------------------------------------------|
B||----11p10p8------------------------------------------------|
G||------------11p10p8--8-------------------------------------|
D||-----------------------10-9p8-8----------------------8h10--|
A||--------------------------------10-9p8-8---------8h10------|
E||-----------------------------------------11-8h11-----------|


e||--------------------------------|
B||--------------------------------|
G||--8-----------------------------|
D||----10-9p8-8--------------------|
A||-------------10-9p8---/8/3--/x--|
E||--------------------------------|


e||------------------------------------------------------------|
B||-----------------------------------------------------8------|
G||--5-5-----6-6-6-6-6-6--7-7---------------------5-7b9---9r7--|
D||--5-5-----7-7-7-7-7-7--7-7------------------/5--------------|
A||--3-3-----7-7-7-7-7-7--5-5----------------------------------|
E||------3-4-5-5-5-5-5-5------5-7-3-3-6p3-6p3------------------|


e||-------------8-----8-------------|
B||-------6-6b7---6b7---7r6p5-------|
G||-----5----------------------3/4--|
D||--/7-----------------------------|
A||---------------------------------|
E||---------------------------------|
Outros vídeos desta música
    141 exibições
      • ½ Tom
      • A
      • Bb
      • B
      • C
      • Db
      • D
      • Eb
      • E
      • F
      • F#
      • G
      • Ab
    • Adicionar à lista

    Afinação da cifra

    Afinador online

      0 comentários

      Ver todos os comentários

      Entre para o Cifra Club PRO

      Tenha acesso a benefícios exclusivos no App e no Site

      • Chega de anúncios

      • Badges exclusivas

      • Mais recursos no app do Afinador

      • Atendimento Prioritário

      • Aumente seu limite de lista

      • Ajude a produzir mais conteúdo

      Cifra Club Pro

      Aproveite o Cifra Club com benefícios exclusivos e sem anúncios
      Cifra Club Pro
      Aproveite o Cifra Club com benefícios exclusivos e sem anúncios
      Ops (: Contenido disponible sólo en portugués.
      OK