Cifra Club

Infectado

Amen

Cifra: Principal (violão e guitarra)
Selo Cifra Club: esta cifra foi revisada para atender aos critérios oficiais da nossa Equipe de Qualidade.
tom: E
Intro: B

E                      G#m         A
Estoy infectado de tu amor, uh uh uh
              C             B
ya no me hace efecto el alcohol.
E                      G#m       A
No tengo remedio ya lo sé, uh uh uh
             C              B
sólo espero no sentir el dolor.

C#m                    A
Sigo cayendo en este abismo
F#                        B
      y no sé cuándo pararé, oh oh oh oh.

E                   G#m        A
Haz debilitado mi razón, uh uh uh
                C                 B
y ya no quiero parar esta infección.
E                       G#m       A
Aún sigo muriéndome por ti, uh uh uh
          C              B
tu veneno me hace tan feliz.

C#m                          A
     Tu amor me rompió la cabeza
F#                        B
      y no sé cuándo sanaré, oh oh oh oh.


Solo (E - G#m - A - C - B) x2
E|------------------------------------------------------------|
B|-5-5-4-4----------------------------------------------------|
G|---------6-4------4b5--------4b5----5-5-5----5-5-5-7-5-4..--|
D|---------------4----------4---------------------------------|
A|-------------6---------6------------------------------------|
E|------------------------------------------------------------|

E|---------------------------------------------------------------------|
B|-5-5-4-4-----------------------------7b8.-7b8b7h5h7-7b8.-7..---5-4]--|
G|---------6-4------4b5--------4b5-------------------------------------|
D|---------------4----------4------------------------------------------|
A|-------------6---------6---------------------------------------------|
E|---------------------------------------------------------------------|


C#m                          A
     Tu amor me rompió la cabeza
F#                        B
      y no sé cuándo sanaré, oh oh oh oh.

E                       G#m       A
Si tienes que irte, vete ya, uh uh uh
                 C               B
no eches flores, ya no me digas nada.
        E                        G#m         A
Es que aún sigo infectado de tu amor, uh uh uh
                C              B       E
y ya no me hace efecto el alcohol, oh no.


Fin: E






E|--------|
                º-| ¤    ¤ |-º
                º-|  LuiS  |-º
                º-| ¤    ¤ |-º
                          /
                    |    |
        ·===========================·
        ·===========================·
Outros vídeos desta música
    112 exibições
      • ½ Tom
      • A
      • Bb
      • B
      • C
      • Db
      • D
      • Eb
      • E
      • F
      • F#
      • G
      • Ab
    • Adicionar à lista

    Afinação da cifra

    Afinador online

      0 comentários

      Ver todos os comentários

      Entre para o Cifra Club PRO

      Tenha acesso a benefícios exclusivos no App e no Site

      • Chega de anúncios

      • Badges exclusivas

      • Mais recursos no app do Afinador

      • Atendimento Prioritário

      • Aumente seu limite de lista

      • Ajude a produzir mais conteúdo

      Cifra Club Pro

      Aproveite o Cifra Club com benefícios exclusivos e sem anúncios
      Cifra Club Pro
      Aproveite o Cifra Club com benefícios exclusivos e sem anúncios
      Ops (: Contenido disponible sólo en portugués.
      OK