Cifra Club

La Chata

Amen

Cifra: Principal (violão e guitarra)
Selo Cifra Club: esta cifra foi revisada para atender aos critérios oficiais da nossa Equipe de Qualidade.
tom: D
            D
Yo sé que nunca podré
            Bm
Dejar de quererte una vez
                G
Y es que aunque no puedas hablarme
                A
Sé bien lo que quieres decirme

             D
No sé si pueda resistir
             Bm
El tiempo lo sabrá decir
                G
Y es que aunque no te tengo cerca
            A
... Aún te puedo sentir

[Refrão]

           D
Y solo yo quiero, ohhh
                  Bm
Que seas mía otra vez
             G         Gm
Y aunque llore mi corazón
                A
Nunca te olvidaré

[Solo]

E|----------------------------------------------------------------------|
B|-12^p10---------------------------------------------------------------|
G|--------11-9/11-9----------9-9/11-11~~11~~9/11------------------------|
D|------------------12--9-12--------------------------------------------|
A|--------------------12------------------------------------------------|
E|----------------------------------------------------------------------|

E|----------------------------------------------------------------------|
B|-12^p10---------------------------------------------------------------|
G|--------11-9/11-9--------9-11-----------------------------------------|
D|------------------12--12------12-9-12^~-------------------------------|
A|--------------------12------------------------------------------------|
E|----------------------------------------------------------------------|

E|---10-12-12/14-14v(x5)..14p12--12/14--12/14-12---12/14-12-------------|
B|-12--------------------------15---------------15---------15-12-14v(x5)|
G|----------------------------------------------------------------------|
D|----------------------------------------------------------------------|
A|----------------------------------------------------------------------|
E|----------------------------------------------------------------------|

E|------------------------------------------------------12--12-14^~~v---|
B|---------------------------------------12--12-15-12-15--15------------|
G|------------------------11--11-14-11-14--14---------------------------|
D|---------12--12-14-12-14--14------------------------------------------|
A|-14-12-14--14---------------------------------------------------------|
E|----------------------------------------------------------------------|

E|-14^~~p12----12~14^vv-14^vv-14^vv-14^~~15^(off)-----------------------|
B|----------15----------------------------------------------------------|
G|----------------------------------------------------------------------|
D|----------------------------------------------------------------------|
A|----------------------------------------------------------------------|
E|----------------------------------------------------------------------|

E|-17^br~~15-14-15-14-------17^br~~15-14-15-14--------------------------|
B|--------------------15-15--------------------15-15------15-17-15-17---|
G|---------------------------------------------------14/16--------------|
D|----------------------------------------------------------------------|
A|----------------------------------------------------------------------|
E|----------------------------------------------------------------------|

E|-14-15-16-17^(17)-----------------------17vv---------19-18-17-16^-----|
B|-----------------17-15-17-15---15-15^v~~-------15-15------------------|
G|----------------------------16---------------16-----------------------|
D|----------------------------------------------------------------------|
A|----------------------------------------------------------------------|
E|----------------------------------------------------------------------|

E|-13^vv-13-------------------------------------------------------------|
B|---------15-12-10h12p10---10-12-10-12-10-12-10~~----------------------|
G|------------------------11--------------------------------------------|
D|----------------------------------------------------------------------|
A|----------------------------------------------------------------------|
E|----------------------------------------------------------------------|

            D
Quizá te olvides de mí
                 Bm
O quizá: yo me olvide de ti
             G
Y es que contigo aprendí
                      A
La verdad, no sé si a vivir o morir

[Final]

                  D            G  D          G    D               Dm
E|--------------------------------2.2.3.3.3.3/5-3----------------------|
B|-3-2-0---------------------------------------------------------------|
G|-------2--------7.7.8.8.8.8/10-8---------------7.7.8.8.8.8/10-8-7----|
D|---------------------------------------------------------------------|
A|---------------------------------------------------------------------|
E|---------------------------------------------------------------------|
Outros vídeos desta música
    8.205 exibições
      • ½ Tom
      • A
      • Bb
      • B
      • C
      • Db
      • D
      • Eb
      • E
      • F
      • F#
      • G
      • Ab
    • Adicionar à lista

    Afinação da cifra

    Afinador online

      0 comentários

      Ver todos os comentários

      Entre para o Cifra Club PRO

      Tenha acesso a benefícios exclusivos no App e no Site

      • Chega de anúncios

      • Badges exclusivas

      • Mais recursos no app do Afinador

      • Atendimento Prioritário

      • Aumente seu limite de lista

      • Ajude a produzir mais conteúdo

      Cifra Club Pro

      Aproveite o Cifra Club com benefícios exclusivos e sem anúncios
      Cifra Club Pro
      Aproveite o Cifra Club com benefícios exclusivos e sem anúncios
      Ops (: Contenido disponible sólo en portugués.
      OK