Cifra Club

Refuse Amen

Amen

Cifra: Principal (violão e guitarra)
tom: Bb
Tabbed by: Brian Bullen

Intro

E-------------------------------------|
B-------------------------------------|
G-------------------------------------|
D-------------------------------------|
A-------------------------------------|
D---0-8-7-0-3-0-3-0---0-8-7-0-3-0-3-0-|

He screams something then...

E------------------------------------|
B------------------------------------|
G------------------------------------|
D------------------------------------|
A--0-8-7-0-3-0-3-0---0-8-7-0-3-0-3-0-|
D--0-8-7-0-3-0-3-0---0-8-7-0-3-0-3-0-|

Intro 2 (also Prechorus)
                                                       #= 10th fret
E-------------------------------------------------------------------|
B-------------------------------------------------------------------|
G-7-7-7------------8-8-8------------9-9-9------------#-#-------------|
A-5-5-5-----------6-6-6-----------3-3-3------------8-8-8------------|
D------0-3-0-3-0-------0-3-0-3-0-------0-3-0-3-0--------0-3-0-3-0---|

Verse
=====
E-----------------------------------------0-|
B-----------------------------------------0-|
G-----------------------------------------0-|
D-----------------------------------------0-|
A--0-0--0-0-1-0-0-1-1---0-0---0-0-1-x-x-0---|
D--0-0--0-0-1-0-0-1-1---0-0---0-0-1-x-x-0---|

Outro Riff
==========
E-----------------------------|
B-----------------------------|
G-----------------------------|
D-----------------------------|
A-0-3-0-3-0-3-0-3-0-3/5-5-5-5-|
D-0-3-0-3-0-3-0-3-0-3/5-5-5-5-|  then play

E---------------------------------|
B---------------------------------|
G---------------------------------|
D---------------------------------|
A-0-3-0-3/5-5-5-5-5-0-5-5/6-6-6-6-|
D-0-3-0-3/5-5-5-5-5-0-5-5/6-6-6-6-|

Last part

E----0-----0-|
B----0-----0-|
G----0-----0-|
D----0-----0-|
A--x-0-x-x-0-|
D--x-0-x-x-0-|  Something like that
Composição de Casey Chaos
471 exibições
    • ½ Tom
    • A
    • Bb
    • B
    • C
    • Db
    • D
    • Eb
    • E
    • F
    • F#
    • G
    • Ab
  • Adicionar à lista

    0 comentários

    Ver todos os comentários

    Conseguiu tocar?

    0 Tocaram 0 Ainda não

    Grave um vídeo tocando Refuse Amen e nos envie!

    00:00 / 00:00
    Outros vídeos desta música
    Repetir Qualidade Automático
    Outros vídeos desta música
    00:00 / 00:00
    Automático

    Cifra Club Pro

    Aproveite o Cifra Club com benefícios exclusivos e sem anúncios
    Cifra Club Pro
    Aproveite o Cifra Club com benefícios exclusivos e sem anúncios
    OK