Cifra Club

Tal Vez

Amen

Cifra: Principal (violão e guitarra)
Selo Cifra Club: esta cifra foi revisada para atender aos critérios oficiais da nossa Equipe de Qualidade.
tom: C
E|-----------------------------------------------|
B|---------------------11-11p-8----11-11p11p-8---|
G|-------------7---7-9-10-10p--9-7-10-10p10p--9-7|
D|----------7h9-7h9------------------------------|
A|--55-7-10--------------------------------------|
E|-----------------------------------------------|

E|--------------------10-10s12s10-8-10-8-----|
B|----8-8-6s8-10-11-12------------------8-8~-|
G|-7s9-----------------------------------9---|
D|-------------------------------------------|
A|-------------------------------------------|
E|-------------------------------------------|

E|-18-18-18-15-------------------------15----17S18S17-15--------|
B|-------------17-15-------------15-17----17-------------17-15S8|
G|-------------------16-14~14-16--------------------------------|
D|--------------------------------------------------------------|
A|--------------------------------------------------------------|
E|--------------------------------------------------------------|

E|---------------10s12----10----------10-------------------|
B|------8-10b-8-8------10b--10-8-8-10b--10-8-8-10~---8-10~-|
G|--7S9--------9----------------9-----------9-----7-9-9----|
D|---------------------------------------------------------|
A|---------------------------------------------------------|
E|---------------------------------------------------------|
Outros vídeos desta música
    43 exibições
      • ½ Tom
      • A
      • Bb
      • B
      • C
      • Db
      • D
      • Eb
      • E
      • F
      • F#
      • G
      • Ab
    • Adicionar à lista

    Afinação da cifra

    Afinador online

      0 comentários

      Ver todos os comentários

      Entre para o Cifra Club PRO

      Tenha acesso a benefícios exclusivos no App e no Site

      • Chega de anúncios

      • Badges exclusivas

      • Mais recursos no app do Afinador

      • Atendimento Prioritário

      • Aumente seu limite de lista

      • Ajude a produzir mais conteúdo

      Cifra Club Pro

      Aproveite o Cifra Club com benefícios exclusivos e sem anúncios
      Cifra Club Pro
      Aproveite o Cifra Club com benefícios exclusivos e sem anúncios
      Ops (: Contenido disponible sólo en portugués.
      OK