Cifra Club

Aprenda

Drowned Maid

Amorphis

Cifra: Principal (violão e guitarra)
tom: A
Riff 1 
|-------------------------------------------------------------|
|-------------------------------------------------------------|
|-------------------------------------------------------------|
|--------------------------------------------4-----4----------|
|--------------------------------------------4-----4----------|
|-777777777777-555555555555-333333333333-222-2-222-2----------|

|-------------------------------------------------------------|
|-------------------------------------------------------------|
|---11--------------11-----------9------------11--------------|
|/9-----/9----/14------/9---/12------/9--/11------/7----------|
|-------------------------------------------------------------|
|-------------------------------------------------------------|

Riff 2
|-------------------------------------------------------------|
|-------------------------------------------------------------|
|-------------------------------------------------------------|
|-12-----------8------------7------------10-------------------|
|-12-----------8------------7------------10-------------------|
|-10-----------6------------5------------8--------------------|

|-------------------------------------------------------------|
|---10---------------10-----------10---------10---------------|
|/7-----/7---/12--------/7--/10-------/7--/9-----/5-----------|
|-------------------------------------------------------------|
|-------------------------------------------------------------|
|-------------------------------------------------------------|

Riff 3
|-------------------------------------------------------------|
|-------------------------------------------------------------|
|-------------------------------------------------------------|
|-9---------5----------5----------7---------------------------|
|-7---------3----------5----------7---------------------------|
|----------------------3----------5---------------------------|

|-------------------------------------------------------------|
|-------------------------------------------------------------|
|-------------------------------------------------------------|
|----4-5------5-4h5-------------------------------------------|
|/7-----------------7-----------------------------------------|
|-----------8----------7-8-7h8p7--5-5-3-2---------------------|

Riff 4
|---------------------------------------------|---------------|
|---------------------------------------------|---------------|
|---------------------------------------------|---------------|
|-3---------3----------6---------------5------|-2-------------|
|-1---------3----------4---------------3------|-2-------------|
|-----------2---------------------------------|-0-------------|

|----8-9------9-8h9---------------------------|---------------|
|/11----------------11------------------------|---------------|
|-----------11---------10-11-10h11p10--8-8-6-5|---------------|
|---------------------------------------------|---------------|
|---------------------------------------------|---------------|
|---------------------------------------------|/11------------|

Riff 5
D|------------------------------------------------------------|
A|------------------------------------------------------------|
F|------------------------------------------------------------|
C|-2---------2------------------------------------------------|
G|-2---------2-------------------2-----------2-2-2-2----------|
D|-0---------0-------------------0-----------0-0-0-0----------|

D|---------------------------|
A|-----------------13--12--10|
F|--9-10-9h10p9-7------------|
C|---------------------------|
G|---------------------------|
D|---------------------------|

Riff 6
D|---------------------------|----------------|---------------|
A|---------------------------|----------------|---------------|
F|---------------------------|----------------|---------------|
C|--3-------5---2------------|------3-------3-|-2-------------|
G|--3-------5---2---2-2-2-2--|------3-------3-|-2---2-2-2-2---|
D|--1---0---3---0---0-0-0-0--|-0-0--1--0-0--1-|-0---0-0-0-0---|
| Every 4th time Everytime,(but not last)
| 
D|---------------------------|
A|-----------------13--12--10|
F|--9-10-9h10p9-7------------|
C|---------------------------|
G|---------------------------|
D|---------------------------|

Riff 7
D|------------------------------------------------------------|
A|------------------------------------------------------------|
F|------------------------------------------------------------|
C|--5---------------8-------7----------------3-----6----------|
G|--5---------------6-------5----------------1-----4----------|
D|--3---------------------------------------------------------|
| 
| 
D|------------------------------------------------------------|
A|------------------------------------------------------------|
F|------------------------------------------------------------|
C|--8-7-5---5---------------7-5-4---4--------3-----6----------|
G|--------8---8-6-5-6-------------7---7-5-3--1-----4----------|
D|------------------------------------------------------------|

Riff 8
D|------------------------------------------------------------|
A|------------------------------------------------------------|
F|------------------------------------------------------------|
C|--5---------------8-------7---7-7-7--------3-3-3--6-6-6-----|
G|--5---5-5-5-------6-------5---5-5-5--------1-1-1--4-4-4-----|
D|--3---3-3-3-------------------------------------------------|
| 
| 
D|------------------------------------------------------------|
A|------------------------------------------------------------|
F|------------------------------------------------------------|
C|--8-7-5---5---------------7-5-4---4--------3-3-3--6-6-6-----|
G|--------8---8-6-5-6-------------7---7-5-3--1-1-1--4-4-4-----|
D|------------------------------------------------------------|

Riff 9 
D|------------------------------------------------------------|
A|------------------------------------------------------------|
F|------------------------------------------------------------|
C|-2-------------5-------------9-------------5-----8----------|
G|-2-2-2-2-2-2-2-3-------------9-9-9-9-9-9-9-5-----8----------|
D|-0-0-0-0-0-0-0---------------7-7-7-7-7-7-7-3-----6----------|
| 
| 
D|------------------------------------------------------------|
A|------------------------------------------------------------|
F|--------3---------------------------------------------------|
C|----5-4---5-4--------------------2-3-5-3-2-/9-7-10-9-10-9---|
G|/7-------------7--5--7--5-----/6----------------------------|
D|---------------------------7--------------------------------|

D|------------------------------------------------------------|
A|------------------------------------------------------------|
F|------------------------------------------------------------|
C|---3--------------------------------------------------------|
G|-2-3-2------------------------------------------------------|
D|-0-1-0------------------------------------------------------|

Riff 1 (4x)
Riff 2 (4x)
Riff 3 (6x)
Riff 4 (4x)
Riff 5 (1x)
Riff 6 (8x)
Riff 4 (4x)
Riff 6 (8x)
Riff 7 (2x)
Riff 8 (2x)
Riff 9 (4x)
Riff 6 (8x)
Riff 4 (4x)
Composição de Esa Holopainen / Jörgen Elofsson / Olli-Pekka Laine / Tomi Koivusaari
Colaboração e revisão:
  • Junior Jr
900 exibições
    • ½ Tom
    • A
    • Bb
    • B
    • C
    • Db
    • D
    • Eb
    • E
    • F
    • F#
    • G
    • Ab
  • Adicionar à lista

    0 comentários

    Ver todos os comentários

    Conseguiu tocar?

    0 Tocaram 0 Ainda não

    Grave um vídeo tocando Drowned Maid e nos envie!

    00:00 / 00:00
    Outros vídeos desta música
    Repetir Qualidade Automático
    Outros vídeos desta música
    00:00 / 00:00
    Automático

    Cifra Club Pro

    Aproveite o Cifra Club com benefícios exclusivos e sem anúncios
    Cifra Club Pro
    Aproveite o Cifra Club com benefícios exclusivos e sem anúncios
    OK