Cifra Club

Aprenda

On Rich And Poor

Amorphis

Cifra: Principal (violão e guitarra)
tom: D
Tune Down 1 whole step (D).

RIFF A
E|-|----------------------------------------------------------------|
B|-|----10----------------------------------------------------------|
G|-|--7----10-9--6--7--10--7------------7-\\9--7-6h7p6---7\\9---------|
D|-|-------------------------10-7--8--5---------------7-------------|
A|-|----------------------------------------------------------------|
E|-|----------------------------------------------------------------|
| 
| RIFF A-1 
E|-|----------------------------------------------------------------|
B|-|----------------------------------------------------------------|
G|-|--7-7---2-------3-------------------3-------2-------6-----------|
D|-|--7-7---2-------3--------3-----5----3-------2-------6-----------|
A|-|--5-5---0-------1--------3-----5----1-------0-------4-----------|
E|-|------0------------------1-----3--------------------------------|
.
Play RIFF A and RIFF A-1 four times

RIFF B
E|-|----------------------------------------------------------------|
B|-|----10-8-10----10br-8------------10-8-10-----8-----------8------|
G|-|--7----------7--------10-9-10--7-----------7----10-9--10--------|
D|-|----------------------------------------------------------------|
A|-|----------------------------------------------------------------|
E|-|----------------------------------------------------------------|
| 
| RIFF B|-1 
E|-|----------------------------------------------------------------|
B|-|----------------------------------------------------------------|
G|-|----------------------------------------------------------------|
D|-|--7------10------10-10---------------------7------10------10-10-|
A|-|--5-5555-8--8888-8--8---5------8------8-8--5-5555-8--8888-8--8--|
E|-|------------------------3-3333-6-6666-6-6-----------------------|
.... .... . .... .... . .... .... .

(End of RIFF B|-1)
E|-|--------------------------|
B|-|--------------------------|
G|-|--------------------------|
D|-|--33333333-5555-6666------|
A|-|--11111111-3333-4444------|
E|-|--------------------------|
........ .... ....

Play RIFF B and RIFF B|-1 four times
Play RIFF A and RIFF A-1 two times

RIFF C
E|-|----------------------------------------------------------------|
B|-|----------------------------------------------------------------|
G|-|-3-------3-3--2-------2-2---------------2-------2-2-------------|
D|-|-3-------3-3--2-------2-2--5-------5-5--2-------2-2-------------|
A|-|-1-------1-1--0-------0-0--5-------5-5--0-------0-0-------------|
E|-|---------------------------3-------3-3--------------------------|

Play RIFF C three times

RIFF C-1
E|-|----------------------------------------------------------------|
B|-|----------------------------------------------------------------|
G|-|-3-----3-3--2-------2-2---------------2-----------------------2-|
D|-|-3-----3-3--2-------2-2--5-------5-5--2-2-2-2-2-2-2-2-2-2-2-2-2-|
A|-|-1-----1-1--0-------0-0--5-------5-5--0-0-0-0-0-0-0-0-0-0-0-0-0-|
E|-|-------------------------3-------3-3----------------------------|
. . . . . . . . . . .
Play RIFF C-1

RIFF D
E|-|----------------------------------------------------------------|
B|-|----7-5-7----------5----------7-5-7----------5------------------|
G|-|--4--------4-7-6p4---7p6-4--4--------4-7-6p4---7p6-4------------|
D|-|----------------------------------------------------------------|
A|-|----------------------------------------------------------------|
E|-|----------------------------------------------------------------|
| 
| RIFF D|-1 
E|-|----------------------------------------------------------------|
B|-|----------------------------------------------------------------|
G|-|--4-------------------------4-----------------------------------|
D|-|--4-------------------------4-----------------------------------|
A|-|--2-------------------------2-----------------------------------|
E|-|----------------------------------------------------------------|

(Continue RIFF D)
E|-|----------------------------------------------------------------|
B|-|--7---5-----------5---------7---5-----------5-------------------|
G|-|----4-----4-7-6p4---7p6-4-----4-----4-7-6p4---7p6-4-------------|
D|-|----------------------------------------------------------------|
A|-|----------------------------------------------------------------|
E|-|----------------------------------------------------------------|
| 
| (Continue RIFF D|-1) 
E|-|----------------------------------------------------------------|
B|-|----------------------------------------------------------------|
G|-|----------------------------------------------------------------|
D|-|--5-------------------------2-----------------------------------|
A|-|--5-------------------------2-----------------------------------|
E|-|--3-------------------------0-----------------------------------|

Play RIFF D and RIFF D|-1 two times

RIFF D|-2
E|-|----------------------------------------------------------------|
B|-|----------------------------------------------------------------|
G|-|----------------------------------------------------------------|
D|-|----4-2-4----------2----------4-2-4----------2------------------|
A|-|--2--------2-5-4p2---5p4-2--2--------2-5-4p2---5p4-2------------|
E|-|----------------------------------------------------------------|

(Continue RIFF D|-2)
E|-|----------------------------------------------------------------|
B|-|----------------------------------------------------------------|
G|-|----------------------------------------------------------------|
D|-|--4---2-----------2---------4---2-----------2-------------------|
A|-|----2-----2-5-4p2---5p4-2-----2-----2-5-4p2---5p4-2-------------|
E|-|----------------------------------------------------------------|

Play RIFF D and RIFF D|-2 four times
Play RIFF B and RIFF B|-1 four times
Play RIFF C under the solo, last time RIFF C-1

SOLO WHA WHA
E|-|----------------------------------------------------------------|
B|-|---------------------13-----------------------------------------|
G|-|--10~~------10-12-12fb-(12fb)r-10------10p9---------------------|
D|-|--------\\12-----------------------12/-------10-10h12-12/--12/-12|
A|-|----------------------------------------------------------------|
E|-|----------------------------------------------------------------|

E|-|--15-13-12-----------15-13-12-13-12-----------------------------|
B|-|-----------13-----------------------13--------------------------|
G|-|--------------12-10--------------------12-9---------------------|
D|-|----------------------------------------------------------------|
A|-|----------------------------------------------------------------|
E|-|----------------------------------------------------------------|

E|-|----------------------------------------------------------------|
B|-|---------------13-----------------------------------------------|
G|-|------10-12-12fb-(12fb)r-10------\\10-9----------------------7-9-|
D|-|--\\12-----------------------12/--------12-10-12-10-12/--\\10-----|
A|-|----------------------------------------------------------------|
E|-|----------------------------------------------------------------|

E|-|----------------------------------------------------------------|
B|-|----------------------------------------------------------------|
G|-|--10-9--7-9----7-9-10-9--7-9----7-9-10-9--7-9----7-9-10-9--7-9--|
D|-|------------10---------------10---------------10----------------|
A|-|----------------------------------------------------------------|
E|-|----------------------------------------------------------------|

E|-|---------15-13-12-----15-13-15-13-12-13-12----------------------|
B|-|------------------13-----------------------13-------------------|
G|-|-----7-9--------------------------------------12-10-9-----------|
D|-|--10------------------------------------------------------------|
A|-|----------------------------------------------------------------|
E|-|----------------------------------------------------------------|

E|-|----------------------------------------------------------------|
B|-|-------------------------------------------------------------10-|
G|-|10-9---------------------9-10-9--------------10-9----9-10-12----|
D|-|-----12-10--12-10--10-12--------12-10----10-------12------------|
A|-|--------------------------------------12------------------------|
E|-|----------------------------------------------------------------|

E|-|-----------------|
B|-|-----13fb--------|
G|-|-----------------|
D|-|-----------------|
A|-|-----------------|
E|-|-----------------|

Play RIFF D and RIFF D|-2 two times

RIFF E
E|-|----------------------------------------------------------------|
B|-|----------------------------------------------------------------|
G|-|----7-5-7----------5----------7-5-7----------5------------------|
D|-|--5--------5-8-7p5---8p7-5--5--------5-8-7p5---8p7-5------------|
A|-|----------------------------------------------------------------|
E|-|----------------------------------------------------------------|

(Continue RIFF E)
E|-|----------------------------------------------------------------|
B|-|----------------------------------------------------------------|
G|-|--7---5-----------5---------7---5-----------5-------------------|
D|-|----5-----5-8-7p5---8p7-5-----5-----5-8-7p5---8p7-5-------------|
A|-|----------------------------------------------------------------|
E|-|----------------------------------------------------------------|

Play RIFF E four times
Play RIFF B and RIFF B|-1 four times

ENDING
E|-|----------------|
B|-|----------------|
G|-|-----7/---------|
D|-|----------------|
A|-|----------------|
E|-|----------------|
| |
E|-|----------------|
B|-|----------------|
G|-|----------------|
D|-|-----7/---------|
A|-|-----5/---------|
E|-|----------------|
Composição de Esa Holopainen / Kim Rantala
Colaboração e revisão:
  • Junior Jr
1.000 exibições
    • ½ Tom
    • A
    • Bb
    • B
    • C
    • Db
    • D
    • Eb
    • E
    • F
    • F#
    • G
    • Ab
  • Adicionar à lista

    0 comentários

    Ver todos os comentários

    Conseguiu tocar?

    0 Tocaram 0 Ainda não

    Grave um vídeo tocando On Rich And Poor e nos envie!

    00:00 / 00:00
    Outros vídeos desta música
    Repetir Qualidade Automático
    Outros vídeos desta música
    00:00 / 00:00
    Automático

    Cifra Club Pro

    Aproveite o Cifra Club com benefícios exclusivos e sem anúncios
    Cifra Club Pro
    Aproveite o Cifra Club com benefícios exclusivos e sem anúncios
    OK