Cifra Club

Camp Out

An Horse

Cifra: Principal (violão e guitarra)
Selo Cifra Club: esta cifra foi revisada para atender aos critérios oficiais da nossa Equipe de Qualidade.
tom: G
Riff 1
E|-----------------------------------------|
B|-----------------------------------------|
G|-----------------------------------------|
D|---5---/---9---/---7---/---14------------|
A|---3---/---7---/---5---/---12------------|
E|-----------------------------------------|


This is a song for the one that I love
I haven’t met them yet
But I’m quietly confident

Although what if like you said
All I’m looking for
It doesn’t exist
Oh I have to believe it does


Riff 2
E|-----------------------------------------|
B|-----------------------------------------|
G|-----------------------------------------|
D|----------------2--------5-----2---------|
A|-----2----------2--------3-----2---------|
E|-----3-----------------------------------|

Cause it’s okay to fall down
It’s okay to crumble
I’ve seen this before
I have seen this before

Riff 1
E|----------------------------------------|
B|----------------------------------------|
G|----------------------------------------|
D|---5---/---9---/---7---/---14-----------|
A|---3---/---7---/---5---/---12-----------|
E|----------------------------------------|

And you said you wanted
to crawl down deep inside
But at this point of the last year
I am happy to be alive and

Like that good Hole album
I could live through this
I can live through worse
So play it back in reverse
Oh play it back in reverse

Riff 2
E|----------------------------------------|
B|----------------------------------------|
G|----------------------------------------|
D|----------------2--------5-----2--------|
A|-----2----------2--------3-----2--------|
E|-----3----------------------------------|


Cause it’s okay to fall down
It’s okay to crumble
I’ve seen this before
I have seen this before and


You wanna camp out and I wanna screw around
In the dark
In the dark

Riff 1
E|----------------------------------------|
B|----------------------------------------|
G|----------------------------------------|
D|---5---/---9---/---7---/---14-----------|
A|---3---/---7---/---5---/---12-----------|
E|----------------------------------------|


But my hips won’t give anything away
Not tonight not to you
but I think we both know you will stay

And I am surprised how this fits together
I’m surprised how we fit together
And that I will remember
Oh and that I will remember

Riff 2

E|---------------------------------------|
B|---------------------------------------|
G|---------------------------------------|
D|----------------2--------5-----2-------|
A|-----2----------2--------3-----2-------|
E|-----3---------------------------------|

Cause It’s okay to fall down
It’s okay to crumble
I’ve seen this before
I have seen this before
And you wanna camp out and I wanna fuck around
In the dark
In the dark


Riff 3

E|---------------------------------------|
B|---------------------------------------|
G|---------------------------------------|
D|----------------5--------2-----5-------|
A|-----2----------3--------2-----3-------|
E|-----3---------------------------------|


But you need to know I’d do this all again
Just to get where I am
Just to get where I am
And I let you know I’d do it all again
Just to get where I am
Just to get where I am

Riff 1 again to finish

E|----------------------------------------|
B|----------------------------------------|
G|----------------------------------------|
D|---5---/---9---/---7---/---14-----------|
A|---3---/---7---/---5---/---12-----------|
E|----------------------------------------|
Outros vídeos desta música
    12 exibições
      • ½ Tom
      • A
      • Bb
      • B
      • C
      • Db
      • D
      • Eb
      • E
      • F
      • F#
      • G
      • Ab
    • Adicionar à lista

    Afinação da cifra

    Afinador online

      0 comentários

      Ver todos os comentários

      Conseguiu tocar?

      0Tocaram0Ainda não

      Grave um vídeo tocando Camp Out e nos envie!

      Toque também

      1. Imagem do artista Tegan And SaraCall It Off Tegan And Sara
      2. Imagem do artista FencesFrom Roses Fences
      3. Imagem do artista Sick Of SarahShattered Sick Of Sarah
      4. Imagem do artista Rachael CantuDevils Thunder Rachael Cantu

      Entre para o Cifra Club PRO

      Tenha acesso a benefícios exclusivos no App e no Site

      • Chega de anúncios

      • Mais recursos no app do Afinador

      • Atendimento Prioritário

      • Aumente seu limite de lista

      • Ajude a produzir mais conteúdo

      Cifra Club Pro

      Aproveite o Cifra Club com benefícios exclusivos e sem anúncios
      Cifra Club Pro
      Aproveite o Cifra Club com benefícios exclusivos e sem anúncios
      OK