Cifra Club

Aprenda

Farelos

Ana Frango Elétrico

Cifra: Principal (violão e guitarra)
tom: A
[Intro]

    F#m7          Bm7          A
E|----2-2-----2---2----2-2--------------0---|
B|----2-2-----2---3----3-3-------2----2-2/--|
G|----2-2-----2---2----2-2-2----2-2--2--2/--|
D|----------------4---------------------2/--|
A|-4------4-------2--2--------0---------0---|
E|------------------------------------------|

E|------------9-9-8--8/7----------|
B|------------------------7--7/9--|
G|------------9-9-8--8/7--7--7/9--|
D|------------------------7--7/9--|
A|-2------2-----------------------|
E|---0--0-------------------------|

     F#m7      Dm
E|----2---2-----3-----0-------------|
B|----2---2----1--1---2-------------|
G|----2---2---2----2--2-------------|
D|-----------0--------2-------------|
A|-4----4-------------0---4p2-------|
E|----------------------------4-2~--|



F#m7  Bm7         E7
I     have only farelos
       A
And I guess
                Bm7
The kitchen is closed

A                    Bm7
Oh... The kitchen is closed

        A
Oh, oh, oh... The kitchen is...


F#m7  Bm7         E7
I     have only farelos
       A
And I guess
                Bm7
The kitchen is closed

A                    Bm7
Oh... The kitchen is closed

        A
Oh, oh, oh... The kitchen is...

    F#m7          Bm7          A
E|----2-2-----2---2----2-2--------------0---|
B|----2-2-----2---3----3-3-------2----2-2/--|
G|----2-2-----2---2----2-2-2----2-2--2--2/--|
D|----------------4---------------------2/--|
A|-4------4-------2--2--------0---------0---|
E|------------------------------------------|


F#m7              Bm7
Happy, but atormentado
F#m7                  Bm7
Lapa is too much information
                 F#m7
For his creative brain
         Bm7
Creative brain
         F#m7
Creative brain
         Bm7    C#m7  Bm7
Creative bra a a a    ain


F#m7  Bm7         E7
I     have only farelos
       A
And I guess
                Bm7
The kitchen is closed

A                    Bm7
Oh... The kitchen is closed

        A
Oh, oh, oh... The kitchen is...

( F#m7 Bm7 )
( F#m7 Bm7 )

F#m7          Bm7
Too much information
F#m7          Bm7
Too much information

F#m7     Bm7
Close... Too...
F#m7     Bm7
Close... Too...
F#m7     Bm7
Close... Too...
F#m7               Bm7
Close... Much information
F#m7               Bm7
Close... Much information

F#m7
Close...
Composição de Ana Frango Elétrico
Colaboração e revisão:
  • Bruno Godoy
  • Rita Gonçalves
  • Advérbio Modo
1.650 exibições
    • ½ Tom
    • A
    • Bb
    • B
    • C
    • Db
    • D
    • Eb
    • E
    • F
    • F#
    • G
    • Ab
  • Adicionar à lista

    0 comentários

    Ver todos os comentários

    Conseguiu tocar?

    1 Tocaram 0 Ainda não

    Grave um vídeo tocando Farelos e nos envie!

    00:00 / 00:00
    Outros vídeos desta música
    Repetir Qualidade Automático
    Outros vídeos desta música
    00:00 / 00:00
    Automático

    Cifra Club Pro

    Aproveite o Cifra Club com benefícios exclusivos e sem anúncios
    Cifra Club Pro
    Aproveite o Cifra Club com benefícios exclusivos e sem anúncios
    OK