Cifra Club

Trevo (Tu) (part. Tiago Iorc)

Anavitória

Cifra: Completa
exibições 32.560
Tom: A# (com acordes na forma de G) Capotraste na 3ª casa
Violão - Parte 1:

  G         C
  Tu, é trevo de quatro folhas
E|---------------------------------|  
B|---------------------------------|
G|--0---0---0---0---0---0---0---0--| 
D|--0---0---0---0---0---0---0---0--| 
A|----------------3---3---3---3----| 
E|3---3---3---3--------------------|

  G                    D
  É manhã de domingo à toa                
E|---------------------------------|
B|---------------------------------| 
G|--0---0----0----0---0---0---0---0|
D|--0---0----0----0---0---0---0---0|
A|------------------2---2---2---2--|
E|3---3----3---3-------------------|
                   Em
  Conversa rara e boa
                        C
  Pedaço de sonho que faz meu querer acordar
E|---------------------------------|
B|---------------------------------| 
G|--0---0----0----0---0---0---0---0|
D|--0---0----0----0---0---0---0---0|
A|------------------3---3---3---3--|
E|0---0----0---0-------------------|

   G
  Pra vida

         D
  Ai ai ai                    
E|---------------------------------|  
B|---------------------------------|
G|--0---0---0---0---0---0---0---0--| 
D|--0---0---0---0---0---0---0---0--| 
A|---------------------------------| 
E|3---3---3---3---2---2---2---2----|

  G        C
  Tu, que tem esse abraço casa
E|---------------------------------|  
B|---------------------------------|
G|--0---0---0---0---0---0---0---0--| 
D|--0---0---0---0---0---0---0---0--| 
A|----------------3---3---3---3----| 
E|3---3---3---3--------------------|

  G
  Se decidir bater asa
E|---------------------------------|
B|---------------------------------| 
G|--0---0----0----0---0---0---0---0|
D|--0---0----0----0---0---0---0---0|
A|------------------2---2---2---2--|
E|3---3----3---3-------------------|

  D                        Em
  Me leva contigo pra passear
      C                               G
  Eu juro afeto e paz não vão te faltar
E|---------------------------------|
B|---------------------------------| 
G|--0---0----0----0---0---0---0---0|
D|--0---0----0----0---0---0---0---0|
A|------------------3---3---3---3--|
E|0---0----0---0-------------------|

  D
  Ai ai ai
E|---------------------------------|  
B|---------------------------------|
G|--0---0---0---0---0---0---0---0--| 
D|--0---0---0---0---0---0---0---0--| 
A|---------------------------------| 
E|3---3---3---3---2---2---2---2----|

       



Em         C                              G
Ah, eu só quero o leve da vida pra te levar
E|---------------------------------|
B|---------------------------------| 
G|--0---0----0----0---0---0---0---0|
D|--0---0----0----0---0---0---0---0|
A|------------------3---3---3---3--|
E|0---0----0---0-------------------|

D                Em
E o tempo para, ah
E|---------------------------------|  
B|---------------------------------|
G|--0---0---0---0---0---0---0---0--| 
D|--0---0---0---0---0---0---0---0--| 
A|---------------------------------| 
E|3---3---3---3---2---2---2---2----|

C                                   G
É a sorte de levar a hora pra passear
E|---------------------------------|
B|---------------------------------| 
G|--0---0----0----0---0---0---0---0|
D|--0---0----0----0---0---0---0---0|
A|------------------3---3---3---3--|
E|0---0----0---0-------------------|

             D                 C
Pra cá e pra lá, pra lá e pra cá
E|---------------------------------|
B|---------------------------------| 
G|--0---0----0----0---2---2---2---2|
D|--0---0----0----0---0---0---0---0|
A|---------------------------------|
E|3---3----3---3----2---2---2---2--|

                G
Quando aqui tu tá
E|---------------------2-----------|
B|------------------1--3-----------| 
G|--0---0----0----0-0--2-----------|
D|--0---0----0----0-2--0-----------|
A|3---3----3---3----3--------------|
E|---------------------------------|

 (G C G C)
E|---------------------------------|  
B|---------------------------------|
G|--0---0---0---0---0---0---0---0--| 2x
D|--0---0---0---0---0---0---0---0--| 
A|----------------3---3---3---3----| 
E|3---3---3---3--------------------|


  G         C
  Tu, é trevo de quatro folhas
E|---------------------------------|  
B|---------------------------------|
G|--0---0---0---0---0---0---0---0--| 
D|--0---0---0---0---0---0---0---0--| 
A|----------------3---3---3---3----| 
E|3---3---3---3--------------------|

  G                    D
  É manhã de domingo à toa                
E|---------------------------------|
B|---------------------------------| 
G|--0---0----0----0---0---0---0---0|
D|--0---0----0----0---0---0---0---0|
A|------------------2---2---2---2--|
E|3---3----3---3-------------------|
                   Em
  Conversa rara e boa
                        C
  Pedaço de sonho que faz meu querer acordar
E|---------------------------------|
B|---------------------------------| 
G|--0---0----0----0---0---0---0---0|
D|--0---0----0----0---0---0---0---0|
A|------------------3---3---3---3--|
E|0---0----0---0-------------------|

   G
  Pra vida

         D
  Ai ai ai                    
E|---------------------------------|  
B|---------------------------------|
G|--0---0---0---0---0---0---0---0--| 
D|--0---0---0---0---0---0---0---0--| 
A|---------------------------------| 
E|3---3---3---3---2---2---2---2----|

  G        C
  Tu, que tem esse abraço casa
E|---------------------------------|  
B|---------------------------------|
G|--0---0---0---0---0---0---0---0--| 
D|--0---0---0---0---0---0---0---0--| 
A|----------------3---3---3---3----| 
E|3---3---3---3--------------------|

  G
  Se decidir bater asa
E|---------------------------------|
B|---------------------------------| 
G|--0---0----0----0---0---0---0---0|
D|--0---0----0----0---0---0---0---0|
A|------------------2---2---2---2--|
E|3---3----3---3-------------------|

  D                        Em
  Me leva contigo pra passear
      C                               G
  Eu juro afeto e paz não vão te faltar
E|---------------------------------|
B|---------------------------------| 
G|--0---0----0----0---0---0---0---0|
D|--0---0----0----0---0---0---0---0|
A|------------------3---3---3---3--|
E|0---0----0---0-------------------|

  D
  Ai ai ai
E|---------------------------------|  
B|---------------------------------|
G|--0---0---0---0---0---0---0---0--| 
D|--0---0---0---0---0---0---0---0--| 
A|---------------------------------| 
E|3---3---3---3---2---2---2---2----|

       



Em         C                              G
Ah, eu só quero o leve da vida pra te levar
E|---------------------------------|
B|---------------------------------| 
G|--0---0----0----0---0---0---0---0|
D|--0---0----0----0---0---0---0---0|
A|------------------3---3---3---3--|
E|0---0----0---0-------------------|

D                Em
E o tempo para, ah
E|---------------------------------|  
B|---------------------------------|
G|--0---0---0---0---0---0---0---0--| 
D|--0---0---0---0---0---0---0---0--| 
A|---------------------------------| 
E|3---3---3---3---2---2---2---2----|

C                                   G
É a sorte de levar a hora pra passear
E|---------------------------------|
B|---------------------------------| 
G|--0---0----0----0---0---0---0---0|
D|--0---0----0----0---0---0---0---0|
A|------------------3---3---3---3--|
E|0---0----0---0-------------------|

             D                 C
Pra cá e pra lá, pra lá e pra cá
E|---------------------------------|
B|---------------------------------| 
G|--0---0----0----0---2---2---2---2|
D|--0---0----0----0---0---0---0---0|
A|---------------------------------|
E|3---3----3---3----2---2---2---2--|

                G
Quando aqui tu tá
E|---------------------2-----------|
B|------------------1--3-----------| 
G|--0---0----0----0-0--2-----------|
D|--0---0----0----0-2--0-----------|
A|3---3----3---3----3--------------|
E|---------------------------------|


G  C  G  D
Tu    (4x)
E|---------------------------------|
B|---------------------------------| 
G|--0---0----0----0---0---0---0---0|
D|--0---0----0----0---0---0---0---0|
A|------------------3---3---3---3--|
E|3---3----3---3-------------------|

E|---------------------------------|  
B|---------------------------------|
G|--0---0---0---0---0---0---0---0--| 
D|--0---0---0---0---0---0---0---0--| 
A|---------------------------------| 
E|3---3---3---3---2---2---2---2----|

Em         C                              G
Ah, eu só quero o leve da vida pra te levar
E|---------------------------------|
B|---------------------------------| 
G|--0---0----0----0---0---0---0---0|
D|--0---0----0----0---0---0---0---0|
A|------------------3---3---3---3--|
E|0---0----0---0-------------------|

D                Em
E o tempo para, ah
E|---------------------------------|  
B|---------------------------------|
G|--0---0---0---0---0---0---0---0--| 
D|--0---0---0---0---0---0---0---0--| 
A|---------------------------------| 
E|3---3---3---3---2---2---2---2----|

C                                   G
É a sorte de levar a hora pra passear
E|---------------------------------|
B|---------------------------------| 
G|--0---0----0----0---0---0---0---0|
D|--0---0----0----0---0---0---0---0|
A|------------------3---3---3---3--|
E|0---0----0---0-------------------|

             D                 C
Pra cá e pra lá, pra lá e pra cá
E|---------------------------------|
B|---------------------------------| 
G|--0---0----0----0---2---2---2---2|
D|--0---0----0----0---0---0---0---0|
A|---------------------------------|
E|3---3----3---3----2---2---2---2--|

                G
Quando aqui tu tá
E|---------------------2-----------|
B|------------------1--3-----------| 
G|--0---0----0----0-0--2-----------|
D|--0---0----0----0-2--0-----------|
A|3---3----3---3----3--------------|
E|---------------------------------|


  C                   G
É trevo de quatro folhas
E|---------------------------------|  
B|---------------------------------|
G|--0---0---0---0---0---0---0---0--| 
D|--0---0---0---0---0---0---0---0--| 
A|----------------3---3---3---3----| 
E|3---3---3---3--------------------|

  C                        G
É trevo de quatro folhas é
E|---------------------------------|  
B|---------------------------------|
G|--0---0---0---0---0---0---0---0--| 
D|--0---0---0---0---0---0---0---0--| 
A|----------------3---3---3---3----| 
E|3---3---3---3--------------------|

   C                  G
É trevo de quatro folhas
E|---------------------------------|  
B|---------------------------------|
G|--0---0---0---0---0---0---0---0--| 
D|--0---0---0---0---0---0---0---0--| 
A|----------------3---3---3---3----| 
E|3---3---3---3--------------------|

  C                        G
É trevo de quatro folhas é
E|---------------------------------|  
B|---------------------------------|
G|--0---0---0---0---0---0---0---0--| 
D|--0---0---0---0---0---0---0---0--| 
A|----------------3---3---3---3----| 
E|3---3---3---3--------------------|
Acordes para:
    Colaboração e revisão:
    • Reginaldo Angelo

    0 comentários

      mostrar mais comentários

      Conseguiu tocar?

      3tocaram2ainda não

      Grave um vídeo tocando Trevo (Tu) (part. Tiago Iorc) e mande pra gente!

      00:00 / 00:00
      outros vídeos desta música
      repetirqualidadeautomática
      Outro vídeos desta música
        00:00 / 00:00
        automática
        Capítulos
        • Tocando a música
        • Apresentação / Equipamentos
        • Acordes da música
        • Tocando Primeira Estrofe
        • Primeira Parte: Estrofe 1
        • Ensinando Estrofe 1 - Parte 1 de 4
        • Ensinando Estrofe 1 - Parte 2 de 4
        • Ensinando Estrofe 1 - Parte 3 de 4
        • Ensinando Estrofe 1 - Parte 4 de 4
        • Dicas Segunda Estrofe
        • Tocando Segunda Estrofe
        • Ensinando Primeira Parte: Estrofe 2
        • Dicas Refrão
        • Tocando Refrão
        • Ensinando Refrão - Parte 1 a 3
        • Ensinando Refrão - Parte 4 de 6
        • Ensinando Refrão - Parte 5 e 6
        • Dicas Repetição - Final
        • Tocando Repetição - Final
        • Encerramento
        OK