Cifra Club

Aprenda

Tua

Anavitória

Cifra: Versão 4 (violão e guitarra)
tom: Bb (forma dos acordes no tom de G) Capotraste na 3ª casa
[Intro]

    G                C/C9
E|-------------------------------------|
B|---------3-------1-------3-----------|
G|-----0-------0-------0-------0-------|
D|---0---0---0---0---2---2---2---2-----|
A|-----------------3-------3-----------|
E|-3-------3---------------------------|

    G                C/C9
E|-------------------------------------|
B|---------3-------1-------3-----------|
G|-----0-------0-------0---------------|
D|---0---0---0---0---2---2-------------|
A|-----------------3-------3-----------|
E|-3-------3---------------------------|

[Primeira Parte]

Teu jeito rima com o meu
     G                C
E|-------------------------------------|
B|---------3-------1-------------------|
G|-----0-------0-----------------------|
D|---0---0---0---0---------------------|
A|-----------------3-------------------|
E|-3-------3---------------------------|

O tom albino da tua pele me contrasta
     G                D9
E|-------------------------------------|
B|---------3---------------3-----------|
G|-----0-------0-------2-------2-------|
D|---0---0---0---0---0---0---0---0-----|
A|-----------------0-------0-----------|
E|-3-------3---------------------------|

Meu toque até te escolheu
     Em               C
E|-------------------------------------|
B|---------0-------1-------------------|
G|-----0-------0-----------------------|
D|---2---2---2---2---------------------|
A|-----------------3-------------------|
E|-0-------0---------------------------|

Pra te fazer casa
     G
E|-------------------------------------|
B|---------3---------------------------|
G|-----0-------0---0-------------------|
D|---0---0---0---0---------------------|
A|-------------------------------------|
E|-3-------3-------3-------------------|

Meu bem, tu tem minha saudade
     G                C/C9
E|-------------------------------------|
B|---------3-------1-------3-----------|
G|-----0-------0-------0-------0-------|
D|---0---0---0---0---2---2---2---2-----|
A|-----------------3-------3-----------|
E|-3-------3---------------------------|

Minha verdade, meu querer, então se deixa ser
     G                D9
E|-------------------------------------|
B|---------3---------------3-----------|
G|-----0-------0-------2-------2-------|
D|---0---0---0---0---0---0---0---0-----|
A|-----------------0-------0-----------|
E|-3-------3---------------------------|

Mais de mim e ter
     Em
E|-------------------------------------|
B|---------0---------------------------|
G|-----0-------0-----------------------|
D|---2---2---2---2---------------------|
A|-------------------------------------|
E|-0-------0---------------------------|

Mais de mim que já é, que já tem
     C/C9            G         D9
E|---------------------------0---------|
B|-1-------3-------3---------3---------|
G|-----0-------0---0---------2---------|
D|---2---2---2---2-----------0---------|
A|-3-------3-----------------0---------|
E|-----------------3---------0---------|

Eu não me importaria
                    C/C9
E|-------------------------------------|
B|---------------1-------3-------------|
G|---------------0---0---0---0---------|
D|-----------------2---2---2---2-------|
A|---------------3-------3-------------|
E|-------------------------------------|

De dividir um colchão com você
          D9              G
E|-------------------------------------|
B|-----3-------3-------3-------3-------|
G|-----2---2---2---2---0---0---0---0---|
D|-------0---0---0---0---0---0---0---0-|
A|-----0-------0-----------------------|
E|---------------------3-------3-------|

Dar meu cabelo pra de nós tu encher
             Em              C/C9
E|---------------------------------------|
B|--------0-------0-------1-------3------|
G|--------0---0---0---0---0---0---0---0--|
D|----------2---2---2---2---2---2---2---2|
A|------------------------3-------3------|
E|--------0-------0----------------------|

E me afogar no teu corpo metido a travesseiro
          D9
E|---------------------0-0-0-2-2-2-3-3-3|
B|-----3-------3-------0-0-0-0-0-0-0-0-0|
G|-----2---2---2---2---0-0-0-0-0-0-0-0-0|
D|-------0---0---0---0------------------|
A|-----0-------0-------2-2-2-2-2-2-2-2-2|
E|--------------------------------------|

Não contestaria um pedido de carinho teu
               C/C9            D9              G
E|---------------------------------------------------------|
B|----------1-------3-------3-------3-------3-------3------|
G|----------0---0---0---0---2---2---2---2---0---0---0---0--|
D|------------2---2---2---2---0---0---0---0---0---0---0---0|
A|----------3-------3-------0-------0----------------------|
E|------------------------------------------3-------3------|

Café mais amargo, tua toalha jogada no quarto
     Em              C/C9            D9
E|-----------------------------------------------|
B|0-------0-------1-------3-------3-------3------|
G|0---0---0---0---0---0---0---0---2---2---2---2--|
D|--2---2---2---2---2---2---2---2---0---0---0---0|
A|----------------3-------3-------0-------0------|
E|0-------0--------------------------------------|

Nenhum traço do que é teu
             Em
E|-------------------------------------|
B|--------0-------0-------0------------|
G|--------0---0---0---0---0------------|
D|----------2---2---2---2--------------|
A|-------------------------------------|
E|--------0-------0-------0------------|

[Segunda Parte]

Meu jeito rima com o teu
     G                C
E|-------------------------------------|
B|---------3-------1-------------------|
G|-----0-------0-----------------------|
D|---0---0---0---0---------------------|
A|-----------------3-------------------|
E|-3-------3---------------------------|

O tom de noite na tua pele me contrasta
     G                D9
E|-------------------------------------|
B|---------3---------------3-----------|
G|-----0-------0-------2-------2-------|
D|---0---0---0---0---0---0---0---0-----|
A|-----------------0-------0-----------|
E|-3-------3---------------------------|

Teu toque até me aprendeu
     Em               C
E|-------------------------------------|
B|---------0-------1-------------------|
G|-----0-------0-----------------------|
D|---2---2---2---2---------------------|
A|-----------------3-------------------|
E|-0-------0---------------------------|

Em ti fiz minha casa
     G
E|-------------------------------------|
B|---------3---------------------------|
G|-----0-------0---0-------------------|
D|---0---0---0---0---------------------|
A|-------------------------------------|
E|-3-------3-------3-------------------|

Meu bem tu tem minha saudade
     G                C/C9
E|-------------------------------------|
B|---------3-------1-------3-----------|
G|-----0-------0-------0-------0-------|
D|---0---0---0---0---2---2---2---2-----|
A|-----------------3-------3-----------|
E|-3-------3---------------------------|

Minha verdade, minhas canções, então me deixa ser
     G                D9
E|-------------------------------------|
B|---------3---------------3-----------|
G|-----0-------0-------2-------2-------|
D|---0---0---0---0---0---0---0---0-----|
A|-----------------0-------0-----------|
E|-3-------3---------------------------|

Mais de ti e ter
     Em
E|-------------------------------------|
B|---------0---------------------------|
G|-----0-------0-----------------------|
D|---2---2---2---2---------------------|
A|-------------------------------------|
E|-0-------0---------------------------|

Mais de ti que já sou, que me deu
     C/C9            G         D9
E|---------------------------0---------|
B|-1-------3-------3---------3---------|
G|-----0-------0---0---------2---------|
D|---2---2---2---2-----------0---------|
A|-3-------3-----------------0---------|
E|-----------------3---------0---------|

Eu não me importaria
                    C/C9
E|-------------------------------------|
B|---------------1-------3-------------|
G|---------------0---0---0---0---------|
D|-----------------2---2---2---2-------|
A|---------------3-------3-------------|
E|-------------------------------------|

De dividir um colchão com você
          D9              G
E|-------------------------------------|
B|-----3-------3-------3-------3-------|
G|-----2---2---2---2---0---0---0---0---|
D|-------0---0---0---0---0---0---0---0-|
A|-----0-------0-----------------------|
E|---------------------3-------3-------|

Dar meu cabelo pra de nós tu encher
             Em              C/C9
E|---------------------------------------|
B|--------0-------0-------1-------3------|
G|--------0---0---0---0---0---0---0---0--|
D|----------2---2---2---2---2---2---2---2|
A|------------------------3-------3------|
E|--------0-------0----------------------|

E me afogar no teu corpo metido a travesseiro
          D9
E|---------------------0-0-0-2-2-2-3-3-3|
B|-----3-------3-------0-0-0-0-0-0-0-0-0|
G|-----2---2---2---2---0-0-0-0-0-0-0-0-0|
D|-------0---0---0---0------------------|
A|-----0-------0-------2-2-2-2-2-2-2-2-2|
E|--------------------------------------|

Não contestaria um pedido de carinho teu
               C/C9            D9              G
E|---------------------------------------------------------|
B|----------1-------3-------3-------3-------3-------3------|
G|----------0---0---0---0---2---2---2---2---0---0---0---0--|
D|------------2---2---2---2---0---0---0---0---0---0---0---0|
A|----------3-------3-------0-------0----------------------|
E|------------------------------------------3-------3------|

Café mais amargo, tua toalha jogada no quarto
     Em              C/C9            D9
E|-----------------------------------------------|
B|0-------0-------1-------3-------3-------3------|
G|0---0---0---0---0---0---0---0---2---2---2---2--|
D|--2---2---2---2---2---2---2---2---0---0---0---0|
A|----------------3-------3-------0-------0------|
E|0-------0--------------------------------------|

Nenhum traço do que é teu
             Em
E|-------------------------------------|
B|--------0-------0-------0------------|
G|--------0---0---0---0---0------------|
D|----------2---2---2---2--------------|
A|-------------------------------------|
E|--------0-------0-------0------------|
Composição de Ana Caetano
Colaboração e revisão:
  • Pedro Palermo
1.989 exibições
  • Simplificar cifra
    • ½ Tom
    • A
    • Bb
    • B
    • C
    • Db
    • D
    • Eb
    • E
    • F
    • F#
    • G
    • Ab
  • Adicionar à lista

    0 comentários

    Ver todos os comentários

    Conseguiu tocar?

    1 Tocaram 1 Ainda não

    Grave um vídeo tocando Tua e nos envie!

    00:00 / 00:00
    Outros vídeos desta música
    Repetir Qualidade Automático
    Outros vídeos desta música
    00:00 / 00:00
    Automático

    Cifra Club Pro

    Aproveite o Cifra Club com benefícios exclusivos e sem anúncios
    Cifra Club Pro
    Aproveite o Cifra Club com benefícios exclusivos e sem anúncios
    OK