Cifra Club

Aprenda

Aquário

André Pupo

Cifra: Principal (violão e guitarra)
Tom: G
Riff 1

E|-------------------------|
B|--7--x-------0--5--0---0-|
G|--0-----7s---5--0--5s--4-|
D|--9--x--9s---7--7--7s--5-|
A|-------------------------|
E|-------------------------|

Riff 2

E|-------------------------|
B|--7--x-------0--5--0---0-|
G|--0-----7s---5--0--5s--5-|
D|--9--x--9s---7--7--7s--7-|
A|-------------------------|
E|-------------------------|

Riff 3

E|-------------------------|
B|--7--x-------0--5--0---0-|
G|--0-----7s---5--0--5s--5-|
D|--9--x--9s---7--7--7s--7-|
A|-------------------------|
E|-------------------------|

Riff 4

E|---------------------------------|
B|--5--5--5--5---7--7--7--7--8---8-|
G|--0--0--0--0--0--0--0--0---0---0-|
D|--7--7--7--7--9--9--9--9--10--10-|
A|---------------------------------|
E|---------------------------------|

Riff 5

E|-5s-7-7-7--------5-5-5-------3-3-3---------------|
B|-----------8-8-8--------7-7-7-------5-5-5-7-7-7--|
D|-------------------------------------------------|
A|-------------------------------------------------|
E|-------------------------------------------------|

Riff 6

E|-5s-7-7-7--------5-5------7-7-7-8-8-8-5-5-5----------------------|
B|------------8-8-8------7-7-------------------------7-7-7-8-8-5-5-|
G|-----------------------------------------------------------------|
D|-----------------------------------------------------------------|
A|-----------------------------------------------------------------|
E|-----------------------------------------------------------------|

Em
Olho pra trás
D4/A             D/A
E a saudades me diz vem
        B            C9
Quantas vidas que passei
  G               D/A
E o relógio a me seguir
Em
Com o seu terno rasgado
              F#4
E atrasado "hear this then"
                G
bem que te conheço bem
 C9          D/A          Em
Quando ele me convidou a mudar

F#11+/C         G
O tempo a embarcar
 Em          C
Chamando pra mudar

(Riff 1)

Em F#11+/C      G
O tempo a embarcar
Em            C
Chamando pra mudar

(Riff 1)  Em

(Riff 2)

C                    E5+
fora das vidraças vazias
Em                 F#11+/C   Em
caem as facas da chuva do outono

(Riff 1) C

(Riff 1) C

Em
Olho pra trás
D4/A             D/A
E a saudades me diz vem
        B            C9
Quantas vidas caminhei
  G               D/A
E as veredas a surgir
  Em
Com o seu terno rasgado
              F#4
E apressado "in its then"
                G
Sei que te conheço bem
C9                  Em
Mas quando me convidou

F#11+/C         G
O tempo a embarcar
                G
Chamando pra mudar

(Riff 3) 

(Riff 3)

(Riff 4)

Em      C (Riff 5)
Estive em um aquário
com ele a me embalar

Em  e Parte 6
Estive no aquário
e tive que sonhar

Em    C e (Riff 5)
Estive no aquário
com ele a me sonhar

Em  (Riff 6)
Estive no aquário
e tive que sonhar
Composição de André Pupo de Castro
Colaboração e revisão:
  • André Castro
35 exibições
    • ½ Tom
    • A
    • Bb
    • B
    • C
    • Db
    • D
    • Eb
    • E
    • F
    • F#
    • G
    • Ab
  • Adicionar à lista

    0 comentários

    Mostrar mais comentários

    Conseguiu tocar?

    0 Tocaram 0 Ainda não

    Grave um vídeo tocando Aquário e mande pra gente!

    00:00 / 00:00
    outros vídeos desta música
    repetir qualidade Automático
    Outros vídeos desta música
    00:00 / 00:00
    Automático
    OK