Cifra Club

Milagre

André Valadão

Cifra: Principal
exibições 1.072.394
Tom: C
[Intro]  Am7  G/B  (C  C/E)  F9
         Am7  G/B  F9  Dm7

E|------------------------------------------------|
B|------------------------------------------------|
G|-4/5-4-5---4/5-4-5-5/7--5-4-5-4-5---------------|
D|-----------------------------------5--5/7-------|
A|------------------------------------------------|
E|------------------------------------------------|

E|------------------------------------------------|
B|--------------5/6---------5---------------------|
G|-4/5-4-5------------7-5-7---7-5-7~--------------|
D|------------7-----------------------------------|
A|------------------------------------------------|
E|------------------------------------------------|

E|------------------------------------------------|
B|------------------------------------------------|
G|---------------------------7-9-10/12------------|
D|------------------7-9-10------------------------|
A|----------7-8-10--------------------------------|
E|-5/7-8-10---------------------------------------|

E|------------------------------------------------|
B|--------10/13-10--------------------------------|
G|-10-9-------------------------------------------|
D|------------------------------------------------|
A|------------------------------------------------|
E|------------------------------------------------|

        Am7              Am7/G    F9    G/B  C
Posso crer que em minha vida o milagre vai acontecer
       Am7       Am7/G          F9  C/E
Posso ver as promessas sendo liberadas sobre mim
         Dm7        G4    G
Sendo liberadas sobre mim     

        F9       G       Am7
Hoje o meu milagre vai chegar
                  F9    G    Am7
Eu vou crer, não vou duvidar
    C/E          F9       G      Am7
O preço que foi pago ali na cruz
    G/B    F/A         G4
Me dá vitória nesta hora

 G          Am7          G/B    C
Hoje o meu milagre vai chegar
C/E               F9    G    Am7
Eu vou crer, não vou duvidar
    Em7          F9       G     Am7
O preço que foi pago ali na cruz
    G/B    F/A         G4   G
Me dá vitória nesta hora

     Am7         Am7/G                F9   G/B   C
Tua morte, tua cruz, teu sangue derramado no calvário
   Am7               Am7/G                F9    C/E
Está selado, foi consumado eu vivo, hoje livre do pecado
          Dm7            G4    G
Vivo as promessas dos milagres    

        F9       G       Am7
Hoje o meu milagre vai chegar
                  F9    G    Am7
Eu vou crer, não vou duvidar
    C/E          F9       G      Am7
O preço que foi pago ali na cruz
    G/B    F/A       G/B
Me dá vitória nesta hora
       F/C        G4   G
Me dá vitória nesta hora

Bb9  Gsus4  G  Bb9  Gsus4  G/B  F/A  Bb9
Bb9  Gsus4  G  Bb9  Gsus4  G

 Am7  G/B  C  C9  G4   G  F9    G    Am7
Ho - je o meu(o  meu) mi-lagre vai chegar
                 F9  G   Am7
Eu vou crer não vou duvidar
    C/E          F9    G      Am7
O preço que foi pago ali na cruz
    G/B    F/A       G
Me dá vitória nesta hora

            F/A     G/B    C/F
Hoje o meu milagre vai chegar
C/E               F9  G   Am7
Eu vou crer, não vou duvidar
    Em7          F9       G   Am7
O preço que foi pago ali na cruz
       F/A           G/B
Me dá vitória nesta hora

       F/C           G
Me dá vitória nesta hora 

Me dá vitória!


[Solo]  Bb9  Fm/Eb  C

E|-------------------------------------------------------|
B|-8/10-10-10-12-10-10-12-12-13--12-13-12-12-13-13-13----|
G|-------------------------------------------------------|
D|-5/7--7--7--9--7--7--9--9--10--9--10-9--9--10-10-10----|
A|-------------------------------------------------------|
E|-------------------------------------------------------|

E|-------------------------------------------------------|
B|-15--13--13--15--15--15---8/10-10-10-------------------|
G|-------------------------------------------------------|
D|-12--10--10--12--12--12---5/7--7--7--------------------|
A|-------------------------------------------------------|
E|-------------------------------------------------------|

E|-------------5-----------------------------------------|
B|-----------------8-------------------------------------|
G|-7b9-7r-7b9~~--7r--7b9-7r-5--5/7-5~~-------------------|
D|---------------------------7---------------------------|
A|-------------------------------------------------------|
E|-------------------------------------------------------|

E|-------------------------------------------------------|
B|-------------------------------------------------------|
G|-------------------------------------------------------|
D|-5/7-7/5---5-5/7-5~------------------------------------|
A|---------7------------7-5-3-0-3/5~~--------------------|
E|-------------------------------------------------------|

[Riff]

E|------------------------------------------|
B|-6-5-6--6-8-------------------------------|
G|-5-5-5--5-7-------------------------------|
D|-3-2-3--3/5-------------------------------|
A|------------------------------------------|
E|------------------------------------------|

0 comentários

    mostrar mais comentários

    Conseguiu tocar?

    38tocaram0ainda não

    Grave um vídeo tocando Milagre e mande pra gente!

    00:00 / 00:00
    outros vídeos desta música
    repetirqualidadeautomática
    Outro vídeos desta música
      00:00 / 00:00
      automática
      OK