Cifra Club

Oceanos

André Valadão

Cifra: Principal (violão e guitarra)
Tom: G
 Em7              D/F#    G
Tua voz me chama sobre as águas
         D9             C
Onde os meus pés podem falhar
Em7                 D/F#  G
 E ali Te encontro no mistério
        D9             C
Em meio ao mar, confiarei
        G         D9
Ao Teu Nome clamarei
C          G          D9
E além das ondas olharei
C             G
Se o mar crescer
        D9             C
Somente em Ti descansarei

     D9      Em   D/F#  G      D9  C
Pois eu sou Teu e   Tu  És meu
Em                   D/F#   G
 Tua graça cobre os meus temores
        D9            C
Tua forte mão me guiará
 Em              D/F#  G
Se estou cercado pelo medo
       D9               C
Tu És Fiel, nunca vais falhar

C        G         D9
 Ao Teu Nome clamarei
C          G          D9
E além das ondas olharei
 C            G
Se o mar crescer
        D9             C
Somente em Ti descansarei

     D9  Em        D/F# G      D  C
Pois eu sou Teu e Tu    És meu

[Solo] Em  D/F#  G  D
       C  D9  Em 

E|---7-5-7---7-5-7---7-5-7---7-5-7--------------------|
B|-5--------------------------------------10-8-10-----|
G|--------------------------------------7-------------|
D|----------------------------------------------------|
A|----------------------------------------------------|
E|----------------------------------------------------|

                               H.M
E|-----------------------------12---------------------|
B|-10-8-------8-7-8---8-7------12---------------------|
G|----------5------------------12---------------------|
D|----------------------------------------------------|
A|----------------------------------------------------|
E|----------------------------------------------------|

Em                   C
 Guia-me pra que em tudo em Ti confie
         G
Sobre as águas eu caminhe
    D9
Por onde quer que chames
Em7                   C
  Leva-me mais fundo do que já estive
         G
E minha fé será mais firme
    D9
Senhor, em Tua presença

Em                   C
 Guia-me pra que em tudo em Ti confie
         G
Sobre as águas eu caminhe
    D9
Por onde quer que chames
C                     G
  Leva-me mais fundo do que já estive
         D9
E minha fé será mais firme
    Am7                 C  G
Senhor, em Tua presença
           D9    Am7   Em
Em Tua presença

     D     G    D9  Am7  
Em Tua presença       

( Em  D/F#  G  D9  Am7 )
( Em  D/F#  G  D9  Am7 )
         
C        G         D9
 Ao Teu Nome clamarei
C          G          D9
E além das ondas olharei
 C            G
Se o mar crescer
        D9             C
Somente em Ti descansarei

     D9  Em        D/F# G      D9
Pois eu sou Teu e Tu    És meu
exibições 16.059
Acordes para:
    Colaboração e revisão:
    • Getúlio Vasconcelos
    • Rodrigo Teixeira

    0 comentários

    mostrar mais comentários

    Conseguiu tocar?

    5 tocaram 1 ainda não

    Grave um vídeo tocando Oceanos e mande pra gente!

    00:00 / 00:00
    outros vídeos desta música
    repetir qualidade Automático
    Outros vídeos desta música
    00:00 / 00:00
    Automático
    OK