Cifra Club

Quero Agradecer

André Valadão

Cifra: Principal
exibições 72.821
Tom: C
[Intro]  F7M  C7M

Uhu, uhu, uhu, uhu!
           F7M          C7M
Como posso agradecer a Deus
          F7M            C7M
Pelo seu cuidado com os seus
            F7M            C7M
Ao abrir o mar e a seco andar
           F7M              C7M
Quero agradecer, quero agradecer
           F7M         C7M
Quero agradecer ao Salvador!

F7M  C7M

Uhu, uhu, uhu, uhu!
              F7M       C7M
Como posso agradecer a Deus
              F7M       C7M
Por estar na cova dos leões
            F7M           C7M
Na fornalha ardente não queimar
             F7M              C7M
Quero agradecer, quero agradecer
             F7M         C7M
Quero agradecer ao Salvador!
             F7M              C7M
Quero agradecer, quero agradecer
             F7M         C7M
Quero agradecer ao Salvador!

Dm7  Am7  Dm7  Am7  Dm7  Am7  Dm7 C7M  F7M  C7M  F7M  C7M  F7M  C7M  F7M  C7M

              F7M        C7M
Hoje sei que posso caminhar
              F7M            Am7
De mãos dadas em volta do altar
             F7M        C/E
Como foi eu sei sempre será
             Dm7              C/E
Quero agradecer, quero agradecer
             F7M         C
Quero agradecer ao Salvador!
             F7M            C/E
Quero agradecer, quero agradecer
             Dm7         C7M
Quero agradecer ao Salvador!


E|-------------------------------------------|
B|-------------------------------------------|
G|------------12--9--------------------------|      
D|10--12--14----------12---------------------|
A|-------------------------------------------|
E|-------------------------------------------|


E|-------------------------------------------|
B|-------------------------------------------|
G|------------12--14--12--9------------------|
D|10--12--14-----------------12--14----------|
A|-------------------------------------------|
E|-------------------------------------------|
Acordes para:

    0 comentários

      mostrar mais comentários

      Conseguiu tocar?

      16tocaram0ainda não

      Grave um vídeo tocando Quero Agradecer e mande pra gente!

      00:00 / 00:00
      outros vídeos desta música
      repetirqualidadeautomática
      Outro vídeos desta música
        00:00 / 00:00
        automática
        OK